Song name
# A B C D E F G H I J K L M N O P Q R S T U V W X Y Z

The Myriad - Dont Let Them See You tab

      The Myriad "Don't Let Them See You!"  

 e|Guitar 1: Intro------------------|
 B|---------------------------------|
 G|---------------------------------|
 D|---------------------------------|
 A|3/5-0-3/5-0-x3/5-0-7/5|x3/5-0-7/5|
 E|---------------------------------|

 e|Guitar 2: Intro---------------------|
 B|------------------------------------|
 G|------------------------------------|
 D|7x7x77-x7x77-x7x77-x7x77-x7x77-x7x77|
 A|------------------------------------|
 E|------------------------------------|

    for if you make a sound or you turn around
 e|Guitar 1: Chorus------------------------------------------------------|
 B|---5-3-5-5/10101010101010101010-888888888-777777777|101010101010101010|x2
 G|5-3-------------------------------------------------------------------|
 D|----------------------------------------------------------------------|
 A|----------------------------------------------------------------------|
 E|----------------------------------------------------------------------|

    a splash of gin
 e|Pre Chorus----------------|
 B|--------------------------|
 G|--------------------------|
 D|-7x77|-7x77|-7x77|-7x77---|
 A|0----0-----0-----0-------0|
 E|--------------------------|

         don't let them see you, for if you make a sound or you turn
 e|Chorus---------------------------------------------------------------|
 B|101010101010101010101010101088888888888877777777777777733333333101010|x2
 G|---------------------------------------------------------------------|
 D|---------------------------------------------------------------------|
 A|---------------------------------------------------------------------|
 E|---------------------------------------------------------------------|

 e|solo-------------------------------------------------------|
 B|-----------------------------------------------------------|
 G|-----------------------------------------------------------|
 D|-----------------------------------------------------------|
 A|-----------------------------------------------------------|
 E|131313|13131313-1212121212-101010101010-555555555-999999999|

 e|solo  continued-----------------------------------|
 B|--------------------------------------------------|
 G|--------------------------------------------------|
 D|--------------------------------------------------|
 A|--------------------------------------------------|
 E|1313131313-1212121212121212-1010101010-33333333333|

       don't ever let them see you
 e|solo continued-------------------------------------|
 B|---------------------------------------------------|
 G|---------------------------------------------------|
 D|---------------------------------------------------|
 A|---------------------------------------------------|
 E|13131313-1212121212-101010101010-55555555-999999999|

             you might be crazy
 e|end of solo-------------------------------------|
 B|------------------------------------------------|
 G|------------------------------------------------|
 D|------------------------------------------------|
 A|------------------------------------------------|
 E|1313131313|1212121212|1515151515|999999999999/3r|

     there still out here amongst the trees, don't let them see you
 e|Ending Guitar 1 ----------------------------------------------|
 B|--------------------------------------------------------------|
 G|--------------------------------------------------------------|
 D|--------------------------------------------------------------|
 A|3/5-0---3/5-0------3/5-0-7/5----3/5-0----3/5-0-----------3/5-0|

    don't let them see you!
 e|Ending-----|
 B|-----------|
 G|-5--7--9--5|
 D|0--0--0--0-|
 A|-----------|
 E|-----------|

  Enjoy! email me at jondurrant102@gmail.com john durrant
Tap to rate this tab
 
# A B C D E F G H I J K L M N O P Q R S T U V W X Y Z