Song name
# A B C D E F G H I J K L M N O P Q R S T U V W X Y Z

The Myriad - When Fire Falls tab

 e|11----10------10|-----10-----11------10------11---10------11------10---10|
 B|---9-----10-9---|9-10----10-----10-9----10-9----9----10-9----10-9----9---|
 G|-------------------------------------------------------------------------|
 D|-------------------------------------------------------------------------|
 A|-------------------------------------------------------------------------|
 E|Guitar 1: Intro----repeat through out intro------------------------------|

 e|-------------------------------------------------------------|
 B|-------------------------------------------------------------|
 G|-------------------------------------------------------------|
 D|------------------------------------------3333333333333333333|
 A|5555555555-44444444-333333333-2222222222-1-------------------|
 E|I have lost all my patience for your games-------------------|


 e|can't you see my blood is wearing thin--------------------------|
 B|1818181818181818171717171717171717151515151515141414141414141414|x2
 G|----------------------------------------------------------------|
 D|----------------------------------------------------------------|
 A|----------------------------------------------------------------|
 E|----------------------------------------------------------------|


  
 e|11----10------10|-----10-----11------10------11---10------11------10---10|
 B|---9-----10-9---|9-10----10-----10-9----10-9----9----10-9----10-9----9---|
 G|-------------------------------------------------------------------------|
 D|-------------------------------------------------------------------------|
 A|-------------------------------------------------------------------------|
 E|with boots to my rib cage------------------------------------------------|

 e|-------------------------------------------------------------|
 B|-------------------------------------------------------------|
 G|-------------------------------------------------------------|
 D|------------------------------------------3333333333333333333|
 A|5555555555-44444444-333333333-2222222222-1-------------------|
 E|I have lost all my patience for your games-------------------| 


 e|9-----7|9------9---7-9--9----9---9-11|
 B|--9-7--|--9-7----9-------9-7---9-----|
 G|-------------------------------------|
 D|-------------------------------------|
 A|-------------------------------------|
 E|I have lost all my patience----------|

 e|can't you see my blood is wearing thin--------------------------|
 B|1818181818181818171717171717171717151515151515141414141414141414|x2
 G|----------------------------------------------------------------|
 D|----------------------------------------------------------------|
 A|----------------------------------------------------------------|
 E|----------------------------------------------------------------|

 e|can't you see my blood is wearing thin--------------------------------|
 B|1818181811818188181818171717171717171717151515151515141414141414141414|x2
 G|----------------------------------------------------------------------|
 D|----------------------------------------------------------------------|
 A|----------------------------------------------------------------------|
 E|----------------------------------------------------------------------|

 End with D chord

john durrant jondurrant101@gmail.com

 
 

Tap to rate this tab
# A B C D E F G H I J K L M N O P Q R S T U V W X Y Z