Song name
# A B C D E F G H I J K L M N O P Q R S T U V W X Y Z

The Myriad - 10000 X 10000 tab

Intro Keyboard, G-D-FE-FE-G-D|repeat

e|---------------------|gtr1
B|---------------------|
G|---0----------0------|
D|---------------------|
A|5----5--3--5-----5--3|
E|---------------------|

E|5-5-5-5-5-5|2nd gtr
B|5-5-5-5-5-5|
G|-----------|and I've given ol I have,
D|-----------|
A|-----------|
E|-----------|


Bass Intro

G|----------------------------------------------|
D|----------------------------------------------|
A|-------------------0------0------------------0|
E|0------0--------0-------------0------0--------|

Bass Chorus
G|------------------------------------------|
D|------------------------------------------|
A|33333333333-77777777777-33333333-000000000|
E|------------------------------------------|


e|----------------------------------------------|lead part after Intro
B|----------------------------------------------|gtr1
G|----------------------------------------------|
D|7/9--7/10--7/9--7/10-----------------7/9--7/10|
A|----------------------7b7b7b7b7b7b7b----------|
E|----------------------------------------------|


e|---------------------|gtr1
B|---------------------|
G|---0----------0------|
D|---------------------|
A|5----5--3--5-----5--3|
E|---------------------|

E|5-5-5-5-5-5|2nd gtr
B|5-5-5-5-5-5|
G|-----------|and I've given ol I have,
D|-----------|
A|-----------|
E|-----------|
Tap to rate this tab
# A B C D E F G H I J K L M N O P Q R S T U V W X Y Z