Song name
# A B C D E F G H I J K L M N O P Q R S T U V W X Y Z

The Myriad - A Clean Shot tab

    The Myriad - A Clean Shot

e|5---x55xx5x55x5x5xx5|intro 1st guitar
B|6---x77xx7x77x7x7xx7|
G|7----77--7-77-7-7--7|
D|7----66-------------|
A|--------------------|
E|--------------------|

e|----------|----------|2nd guitar
B|----------|----------|
G|--0---0---|--0---0---|
D|3---2-----|3---2-----|
A|---------3|---------3|x3
E|----------|----------|






e|5555xxx555xx-5555xx|chorus, lots of riffing!
B|6666xxx666xx-6666xx|gtr1
G|7777---777---7777--|
D|7777---777---7777--|
A|-------------------|
E|-------------------|


e|5---x55xx5x55x5x5xx5|
B|6---x77xx7x77x7x7xx7|
G|7----77--7-77-7-7--7|
D|7----66-------------|
A|--------------------|
E|--------------------|

e|----------|----------|2nd guitar
B|----------|----------|
G|--0---0---|--0---0---|
D|3---2-----|3---2-----|
A|---------3|---------3|x3
E|----------|----------|





e|5555xxx555xx-5555xx|chorus, lots of riffing!
B|6666xxx666xx-6666xx|gtr1
G|7777---777---7777--|
D|7777---777---7777--|
A|-------------------|
E|-------------------|


synth notes A, G on e string,


e|5555xxx555xx-5555xx|chorus, lots of riffing!
B|6666xxx666xx-6666xx|gtr1
G|7777---777---7777--|
D|7777---777---7777--|
A|-------------------|
E|-------------------|
Tap to rate this tab
# A B C D E F G H I J K L M N O P Q R S T U V W X Y Z