Song name
# A B C D E F G H I J K L M N O P Q R S T U V W X Y Z

The Naked And Famous - No Way tab

-------------------------------------------------------------------------------
                             No Way - The Naked and Famous
-------------------------------------------------------------------------------
Tabbed by: Telecaster Kid
Email: rossdon.95@googlemail.com

Tuning: Standard(EADGBe)

Verse:
e|------------------------------------|
B|------------------------------------|
G|------------------------------------|
D|--0-0-0-0--0-0-0-0--0-0-0-0-0-0-0-0-|  
A|------------------------------------|      4x
E|-3-3-3-3-/5-5-5-5-/2-2-2-2-2-2-2-2--|

Chorus("No way, no way..."):
e|------------------------------------|
B|------------------------------------|
G|------------------------------------|
D|--0-0-0-0--0-0-0-0--0-0-0-0-0-0-0-0-|  
A|------------------------------------|      
E|-3-3-3-3-/5-5-5-5-/2-2-2-2-2-2-2-2--|

E|-------------------------------------|
B|-------------------------------------|
G|-------------------------------------|
D|--0-0-0-0--0-0-0-0--0-0-0-0-0-0-0--0-|
A|-------------------------------------|
E|-3-3-3-3-/5-5-5-5-/7-7-7-7-7-7-7-/5--|

E|-------------------------------------|
B|-------------------------------------|
G|-------------------------------------|
D|--0-0-0-0--0-0-0-0---0-0-0-0-0-0-0-0-|
A|-------------------/5-5-4-4-2-2-0-0--|
E|-3-3-3-3-/5-5-5-5--------------------|

e|-----------------------------------------------------------xx-|
B|-----------------------------------------------------------xx-|
G|-----------------------------------------------------------xx-|
D|--0-0-0-0--0-0-0-0---0-0--0--0-0-0--0--0-0-0--0--0-0-0-0-0-xx-|  
A|-------------------/5-5-55-55-5-5-55-55-5-5-55-55-5-5-5-5--xx-|      
E|-3-3-3-3-/5-5-5-5------------------------------------------xx-|

Post-Chorus
e|----------------------------------------------------------------------|
B|----------------------------------------------------------------------|
G|-------------------------------------------------------------77777777-|
D|-5555555555555555-9999999999999999-5555555555555555-99999999-77777777-|
A|-5555555555555555-9999999999999999-5555555555555555-99999999-55555555-| 2x
E|-3333333333333333-7777777777777777-3333333333333333-77777777----------|

Verse 1x

Chorus 1x

Post-Chorus 1x

Interlude:

e|---------------------------|
B|---------------------------|
G|-7-----------------7-------|
D|-7--(64x)-5--------7-(32x)-|
A|-5--------5--(32x)-5-------|   1x
E|----------3----------------|

e|----------------------------|
B|----------------------------|
G|-5-----------------7--------|
D|-5--(16x)-5--------7--(32x)-|
A|-3--------5--(16x)-5--------|    3x
E|----------3-----------------|

For the outro play the chords C, G and D.
Hope this Helps, Enjoy!

************************************

| /   slide up
| \   slide down
| h   hammer-on
| p   pull-off
| ~   vibrato
| +   harmonic
| x   Mute note
| b   Bend
| pb  Pre-bend
| br  Bend release
| pbr Pre-bend release
| brb Bend release bend

************************************
Tap to rate this tab
# A B C D E F G H I J K L M N O P Q R S T U V W X Y Z