Song name
# A B C D E F G H I J K L M N O P Q R S T U V W X Y Z

The Naked And Famous - Young Blood chords

Highlighted       Show chord diagrams
Transcribed to get a little of the main riff into the chords

Capo 2

Main riff (added delay):

**not relative to capo**

e|--11-11-9-9-11-9-------11-11-9-9-11-9----------||
B|-----------------11~~-----------------11~~9~~--||
G|-----------------------------------------------||
D|-----------------------------------------------||
A|-----------------------------------------------||
E|-----------------------------------------------||

**everything from now on relative to capo**

Main riff (chords):

    A           E     A           E  B
e|--------------0~----------------0~-------------||
B|--2-2-0-0-2-0-0~----2-2-0-0-2-0-0~-------------||
G|--2-2-2-2-2-2-1~----2-2-2-2-2-2-1~-4~----------||
D|--2-2-2-2-2-2-2~----2-2-2-2-2-2-2~-4~----------||
A|--0-0-0-0-0-0-2~----0-0-0-0-0-0-2~-2~----------||
E|--------------0~----------------0~-------------||

Verse chords:

    C#   B    A
e|---------------||
B|---------------||
G|--6----4----2--||
D|--6----4----2--||
A|--4----2----0--||
E|---------------||

Intro:

Main riff x2
Main riff (chords) x2


A      C#          B               A
       We're only young and naive still
C#     B            A    
We require certain skills
C#          B                A
The mood it changes like the wind
C#           B             A 
Hard to control when it begins


Main riff (chords) x2:
  
The bittersweet between my teeth
Trying to find the in-betweens
Fall back in love eventually
Yeah yeah yeah yeah


A     C#              B                A
      Can't help myself but count the flaws
C#       B                        A            
Claw my way out through these walls
C#        B     A
One temporary escape
C#         B          A
Feel it start to permeate


C#         B                 A
We lie beneath the stars at night
C#           B                A
Our hands gripping each other tight
C#           B               A
You keep my secrets hope to die
C#          B                 A
Promises, swear them to the sky


Main riff (chords) x2:
                       
The bittersweet between my teeth
Trying to find the in-betweens
Fall back in love eventually
Yeah yeah yeah yeah


A  C#   B
      As it withers
A  C#   B
     Brittle it shakes
A  C#   B
   Can you whisper
A  C#   B              A  
   As it crumbles and breaks
C#       B      A
As you shiver
C#         B           A
Count up all your mistakes
C#           B           A
Pair of forgivers
C#          B             A
Let go before itís too late
C#       B      A
Can you whisper
C#       B      A
Can you whisper
C#       B      A
Can you whisper
C#       B      A
Can you whisper


Main riff (chords) x2:

The bittersweet between my teeth
Trying to find the in-betweens
Fall back in love eventually
Yeah yeah yeah yeah
Tap to rate this tab
# A B C D E F G H I J K L M N O P Q R S T U V W X Y Z