Song name
# A B C D E F G H I J K L M N O P Q R S T U V W X Y Z

The Naked And Famous - Golden Girl chords

Highlighted       Show chord diagrams
-------------------------------------------------------------------------------
                             GOLDEN GIRL  The Naked and Famous
-------------------------------------------------------------------------------
Tabbed by: drY321
E-mail: and_1_skip@hotmail.com

Short and sweet song! Enjoy!

Tuning: standard

Capo: 4

         A      F#m      D
e|-------0-------2-------2-------|
B|-------2-------2-------3-------|
G|-------2-------2-------2-------|
D|-------2-------4-------0-------|
A|-------0-------4-------x-------|
E|-------x-------2-------x-------|


These are a few extra notes you can add on to the A chord:             
e|-----0--0---0---0------0---0-5-0-------|
B|-----2--3p2-3p2-2------3p2-3---2-------|
G|-----2--2---2---2------2---2---2-------|
D|-----2--2---2---2------2---2---2-------|
A|-----0--0---0---0------0---0---0-------|
E|-----x--x---x---x------x---x---x-------|

p = pull-off


Intro: A


Verse:

      A
Fall away
      A
Fall away
          A
Melt the edge
    A
Of today


Chorus:

  F#m       D     A
Am I your golden girl?
  F#m       D     A
Am I your golden girl?


Repeat!
Tap to rate this tab
# A B C D E F G H I J K L M N O P Q R S T U V W X Y Z