Song name
# A B C D E F G H I J K L M N O P Q R S T U V W X Y Z

The Naked And Famous - Hearts Like Ours tab

                        The Naked and Famous – Hearts like Ours

Electric Guitar (dist.) Capo 2

The Electric Guitar comes in at the beginning of verse 2. 
Plese Listen for timing. All Notes are relative to Capo!

Verse
e|-----------x-x---x-x-------|-------------------x-x------|
B|-----------x-x---x-x-------|-------------------x-x------|
G|-9-9-9-9\--x-x---x-x-------|-9-9-9-9-9-9-9-9\--x-x------|
D|-x-x-x-x---x-x---x-x---x2--|-x-x-x-x-x-x-x-x---x-x---x2-|
A|-7-7-7-7\--x-x---x-x-------|-7-7-7-7-7-7-7-7\--x-x------|
E|-----------x-x---x-x-------|-------------------x-x------|
  There´s an animal inside...|Of all the things I´ll never do...

Pre-Chorus
e|-------------------x-x---x-x-------|-x---x-x-|
B|-------------------x-x---x-x-------|-x---x-x-|
G|-9-9-9-9-9-9-9-9\--x-x---x-x-------|-x---x-x-|
D|-x-x-x-x-x-x-x-x---x-x---x-x---x2--|-x---x-x-|
A|-7-7-7-7-7-7-7-7\--x-x---x-x-------|-x---x-x-|
E|-------------------x-x---x-x-------|-x---x-x-|
  There´s an animal inside...

Chorus (Rhythm as written)
e|-----------------------------------------------------------------|
B|-----------------------------------------------------------------|
G|-2-2-2-2-2-2-2-2---2-2-2-2-2-2-2---------------------------------|
D|-2-2-2-2-2-2-2-2---2-2-2-2-2-2-2---2-2-2-2-2-2-2---2-2-2-2-2-2-2-|
A|-0-0-0-0-0-0-0-0---0-0-0-0-0-0-0---2-2-2-2-2-2-2---2-2-2-2-2-2-2-|
E|-----------------------------------0-0-0-0-0-0-0---0-0-0-0-0-0-0-|
   1 + 2 + 3 + 4 +   + 2 + 3 + 4 +   + 2 + 3 + 4 +   + 2 + 3 + 4 + 
e|-----------------------------------------------------------------|
B|-----------------------------------------------------------------|
G|-2-2-2-2-2-2-2-2---2-2-2-2-2-2-2-------------------4-4-4-4-4-4-4-|
D|-2-2-2-2-2-2-2-2---2-2-2-2-2-2-2---2-2-2-2-2-2-2---4-4-4-4-4-4-4-|
A|-0-0-0-0-0-0-0-0---0-0-0-0-0-0-0---2-2-2-2-2-2-2---2-2-2-2-2-2-2-|
E|-----------------------------------0-0-0-0-0-0-0-----------------|

e|-----------------------------------------------------------------|
B|-----------------------------------------------------------------|
G|-2-2-2-2-2-2-2-2---2-2-2-2-2-2-2---------------------------------|
D|-2-2-2-2-2-2-2-2---2-2-2-2-2-2-2---2-2-2-2-2-2-2---2-2-2-2-2-2-2-|
A|-0-0-0-0-0-0-0-0---0-0-0-0-0-0-0---2-2-2-2-2-2-2---2-2-2-2-2-2-2-|
E|-----------------------------------0-0-0-0-0-0-0---0-0-0-0-0-0-0-|

e|-----------------------------------------------------------------|
B|-----------------------------------------------------------------|
G|-2-2-2-2-2-2-2-2---2-2-2-2-2-2-2---6-6-6-6-6-6-6---4-4-4-4-4-4-4-|
D|-2-2-2-2-2-2-2-2---2-2-2-2-2-2-2---6-6-6-6-6-6-6---4-4-4-4-4-4-4-|
A|-0-0-0-0-0-0-0-0---0-0-0-0-0-0-0---4-4-4-4-4-4-4---2-2-2-2-2-2-2-|
E|-----------------------------------------------------------------|

Interlude
e|-----------------------------------------------------------------|
B|---3-3-3-3-3-3-3---3-3-3-3-3-3-3---2-2-2-2-2-2-2---2-2-2-2-2-2-2-|
G|---2-2-2-2-2-2-2---2-2-2-2-2-2-2---2-2-2-2-2-2-2---2-2-2-2-2-2-2-|
D|---0-0-0-0-0-0-0---0-0-0-0-0-0-0---2-2-2-2-2-2-2---2-2-2-2-2-2-2-|
A|-----------------------------------0-0-0-0-0-0-0---0-0-0-0-0-0-0-|
E|-----------------------------------------------------------------|
     + 2 + 3 + 4 +   + 2 + 3 + 4 +   + 2 + 3 + 4 +   + 2 + 3 + 4 +  
  In Silence...

e|-----------------------------------------------------------------|
B|-----------------------------------------------------------------|
G|-----------------------------------------------------------------|
D|---2-2-2-2-2-2-2---2-2-2-2-2-2-2---2-2-2-2-2-2-2---2-2-2-2-2-2-2-|    x2
A|---2-2-2-2-2-2-2---2-2-2-2-2-2-2---2-2-2-2-2-2-2---2-2-2-2-2-2-2-|
E|---0-0-0-0-0-0-0---0-0-0-0-0-0-0---0-0-0-0-0-0-0---0-0-0-0-0-0-0-|


Verse 3 (Riffs are played after vocals/use light palm-muting)
e|-----------------------------------------|
B|-----------------------------------------|
G|-----------------------------------------|
D|-----------------------------------------|
A|-/12-(12)-12-12-12-12-10-10-10-12---12~\-|
E|-----------------------------------------|
  Could we try to reinvent...

e|--------------------------------------|
B|--------------------------------------|
G|--------------------------------------|
D|--------------------------------------|
A|-/12-(12)-12-12-12-12-10-10-8-8---8~\-|
E|--------------------------------------|
  Feed the head with common sense...

e|-------------------------------|
B|-------------------------------|
G|-------------------------------|
D|-------------------------------|
A|-/8-(8)-8-8-8-8-x-8-8----------|
E|----------------------10---8~\-|
  Through the streets and avenues...

e|-------------------------------|
B|-------------------------------|
G|-------------------------------|
D|-------------------------------|
A|-/8-(8)-8-8-8-8-x-8-8-10---8~\-|
E|-------------------------------|
  Climbing up the walls with you...

e|-x-x---x-x---|------------------x-x------x---x-x-|
B|-x-x---x-x---|------------------x-x------x---x-x-|
G|-x-x---x-x---|-9-9-9-9-9-9-9-9\-x-x------x---x-x-|
D|-x-x---x-x---|-x-x-x-x-x-x-x-x--x-x------x---x-x-|
A|-x-x---x-x---|-7-7-7-7-7-7-7-7\-x-x------x---x-x-|
E|-x-x---x-x---|------------------x-x------x---x-x-|
  Climbing up the walls with you...Climbing up the walls with you...

After this play: 

Chorus

Interlude

Rest for Bridge

Chorus x2

End (If you want you can play on E5)

Please rate and have fun playing!
Tap to rate this tab
# A B C D E F G H I J K L M N O P Q R S T U V W X Y Z