Guitaretab - guitar tabs
Song name
# A B C D E F G H I J K L M N O P Q R S T U V W X Y Z

The Naked Apes - Uncomfortable Trousers tab

-------------------------------------------------------------------------------
			Uncomfortable Trousers - The Naked Apes
-------------------------------------------------------------------------------
Tabbed by: Muhat Gandy
Email: andyfreeman47@hotmail.com

 /  slide up

Intro 
                         x2
e|-----------------------|
B|-----------------------|
G|-----------------------|
D|-----------------------|
A|--14--12--14--12/13----|
E|--12--10--12--10/11----|

Verse
                     x3
e|--------------------|------------------|
B|--------------------|------------------|
G|--------------------|------------------|
D|--------------------|------------------|
A|--14--12--14--12/13-|--9--9--9--12/13--|
E|--12--10--12--10/11-|--7--7--7--10/11--|

Pre Chorus

e|--------------------------------------|
B|--------------------------------------|
G|--------------------------------------|
D|--------------------------------------|
A|--12--12--7--7--7----12--12--5--5--4--|
E|--14--10--5--5--5----14--10--3--3--2--|
[ Tab from: http://www.guitaretab.com/t/the-naked-apes/79034.html ]
Chorus
                                       x2
e|--------------------------------------|--------------------|
B|--------------------------------------|--------------------|
G|--5-5-5-5-----------------------------|--5---5-------------|
D|--5-5-5-5--7-7-7-7--5-5-5-5--2-2-2-2--|--5---5--7---7---5--|
A|--3-3-3-3--7-7-7-7--5-5-5-5--2-2-2-2--|--3---3--7---7---5--|
E|-----------5-5-5-5--3-3-3-3--0-0-0-0--|---------5---5---3--|

Solo

e|----------------------------------|---------------------|
B|----------------------------------|---------------------|
G|--5--4--2--0--2--2/9--4--0--2--4--|--5---5--------------|
D|----------------------------------|--5---5---7---7---5--|
A|----------------------------------|--3---3---7---7---5--|
E|----------------------------------|----------5---5---3--|


This is a great band and there don't seem to be many tabs around so heres
one of their best songs i think it's 100% right but send me any corrections 
you can find.

http://www.thenakedapes.com/

===============================================================================
Related for Uncomfortable Trousers tab
×
Uncomfortable Trousers