Song name
# A B C D E F G H I J K L M N O P Q R S T U V W X Y Z

The Naked Apes - Teflon Man tab

-------------------------------------------------------------------------------
			     Teflon Man - The Naked Apes
-------------------------------------------------------------------------------
Tabbed by: Muhat Gandy

Tuning: Standard

Intro                                                x3
e|-----------------------------------------------------|
B|-----------------------------------------------------|
G|--5--5--5-5--12--12--12-12---7--7--7-7--10-10-1010---|
D|--5--5--5-5--12--12--12-12---7--7--7-7--10-10-1010---|
A|--3--3--3-3--10--10--10-10---5--5--5-5--8--8--8-8----|
E|-----------------------------------------------------|

Verse                                                    x8
e|---------------------------------------------------------|
B|---------------------------------------------------------|
G|--5--5--5--5--12--12--12--12---7--7--7--7--10-10-10-10---|
D|--5--5--5--5--12--12--12--12---7--7--7--7--10-10-10-10---|
A|--3--3--3--3--10--10--10--10---5--5--5--5--8--8--8--8----|
E|---------------------------------------------------------|

Pre Chorus                                                           x2
e|---------------------------------------------------------------------|
B|---------------------------------------------------------------------|
G|--5-5-5-5-5-5-5-5-5-5-5-5-4-4-4-4--5-5-5-5-5-5-5-5-7-7-7-7-10101010--|
D|--5-5-5-5-5-5-5-5-5-5-5-5-4-4-4-4--5-5-5-5-5-5-5-5-7-7-7-7-10101010--|
A|--3-3-3-3-3-3-3-3-3-3-3-3-2-2-2-2--3-3-3-3-3-3-3-3-5-5-5-5-8-8-8-8---|
E|---------------------------------------------------------------------|

Chorus                                                x6
e|-----------------------------------------------------|
B|-----------------------------------------------------|
G|--5--5--5-5--12--12--12-12---7--7--7-7--10-10-1010---|
D|--5--5--5-5--12--12--12-12---7--7--7-7--10-10-1010---|
A|--3--3--3-3--10--10--10-10---5--5--5-5--8--8--8-8----|
E|-----------------------------------------------------|

Outro                                                    x3
e|---------------------------------------------------------|
B|---------------------------------------------------------|
G|--5--5--5--5--12--12--12--12---7--7--7--7--10-10-10-10---|
D|--5--5--5--5--12--12--12--12---7--7--7--7--10-10-10-10---|
A|--3--3--3--3--10--10--10--10---5--5--5--5--8--8--8--8----|
E|---------------------------------------------------------|

Then finish on
e|--------------|
B|--------------|
G|--5-----------|
D|--5-----------|
A|--3-let ring--|
E|--------------|

Listen to the song to get the times right and enjoy.
Tap to rate this tab
# A B C D E F G H I J K L M N O P Q R S T U V W X Y Z