Song name
# A B C D E F G H I J K L M N O P Q R S T U V W X Y Z

The Naked Brothers Band - Banana Smoothie tab

Help us improve GuitareTab! Take a short survey!
                Banana Smoothie - The Naked Brothers Band
----------------------------------------------------------------------------------------------|
Tabbed by: stokeoblet
Email:

Tuning: Standard

The intro is also the chorus.

e|---------------------|---------------------|
B|---------------------|---------------------|
G|------------------5--|------------------5--|
D|------------5--7-----|------------5--7-----|
A|--3--6-h-7-----------|--3--6-h-7-----------|
E|---------------------|---------------------|

  Take a banana..........

e|---------------------|--------------------|
B|---------------------|--------------------|
G|---------------------|--------------------|
D|------------------3--|-----------3--------|
A|------------3--5-----|--3--5--3-----3-----|
E|--1--4-h-5-----------|--------------------|

  Shake it all up!      Shake it all up!

| /  slide up
| \  slide down
| h  hammer-on
| p  pull-off
| ~  vibrato
| +  harmonic
| x  Mute note
============================================================================
Related for Banana Smoothie tab