Song name
# A B C D E F G H I J K L M N O P Q R S T U V W X Y Z

The Naked Brothers Band - Little Old Nita tab

the tab for the intro is this
(its repeated)

--0--3--0-----------------------------------|
-----------1--3--1--------------------------|
--------------------------------------------|
--------------------------------------------|
--------------------------------------------|
--------------------------------------------|


then, there are also some power chords for the intro which are used at the same time as 
tab above

--------------x-----x-------------------------|
--------------x-----x-------------------------|
--5--5--------x-----x-------5--5--------------|
--5--5--5--5--x--3--x--3----5--5--5--5--3-----|
--3--3--5--5--x--3--x--3----3--3--5--5--3-----|
--------3--3--x--1--x--1----------3--3--1-----|

that is repeated throught the whole song except for the chorus, ill post the chorus later

IF YOU HAVE ANY SUGGESTIONS FEEL FREE TO COMMENT OR MESSAGE ME

XXX

MJ
Tap to rate this tab
# A B C D E F G H I J K L M N O P Q R S T U V W X Y Z