Song name
# A B C D E F G H I J K L M N O P Q R S T U V W X Y Z

The Naked Brothers Band - Motormouth tab

Help us improve GuitareTab! Take a short survey!
Motormouth by: Naked Brothers Band

Tuning: standard b= bend

This song is fun and easy to play. The only tricky part is playing legato on the last 
of each cord watch for the bracketed notes
I find it also helps the tone when you do a very light decorative bend on the bracketed notes.
D]---5--[5^5]----|
A]---3--[3^3]----|
 Pre- Intro: 4 times
e]--------------------------------------------------------------------------|
B]--------------------------------------------------------------------------|
G]--------------------------------------------------------------------------|
D]-5--[5^5]-----------------------------------------------------------------|
A]-3--[3^3]---5--[5^5]---7-[7^7]--3-[3^3]-----------------------------------|
E]--------------3--[3^3]---5-[5^5]--1-[1^1]---------------------------------|

Intro: 2 times
Bah bah bah bah- Bah- Bah bah bah bah
e]--------------------------------------------------------------------------|
B]--------------------------------------------------------------------------|
G]--------------------------------------------------------------------------|
D]-5--[5^5]-----------------------------------------------------------------|
A]-3--[3^3]---5--[5^5]---7-[7^7]--3-[3^3]-----------------------------------|
E]--------------3--[3^3]---5-[5^5]--1-[1^1]---------------------------------|

If you want to
e]--------------------------------------------------------------------------|
B]--------------------------------------------------------------------------|
G]--------------------------------------------------------------------------|
D]-5--[5^5]-----------------------------------------------------------------|
A]-3--[3^3]---5--[5^5]---7-[7^7]--3-[3^3]-----------------------------------|
E]--------------3--[3^3]---5-[5^5]--5-[5^5]---------------------------------|


I can save you
e]--------------------------------------------------------------------------|
B]--------------------------------------------------------------------------|
G]--------------------------------------------------------------------------|
D]-5--[5^5]-----------------------------------------------------------------|
A]-3--[3^3]---5--[5^5]---7-[7^7]--3-[3^3]-----------------------------------|
E]--------------3--[3^3]---5-[5^5]--5-[5^5]---------------------------------|

From the headache
e]--------------------------------------------------------------------------|
B]--------------------------------------------------------------------------|
G]--------------------------------------------------------------------------|
D]-5--[5^5]-----------------------------------------------------------------|
A]-3--[3^3]---5--[5^5]---7-[7^7]--3-[3^3]-----------------------------------|
E]--------------3--[3^3]---5-[5^5]--5-[5^5]---------------------------------|

That she gave you
e]--------------------------------------------------------------------------|
B]--------------------------------------------------------------------------|
G]--------------------------------------------------------------------------|
D]-5--[5^5]-----------------------------------------------------------------|
A]-3--[3^3]---5--[5^5]---7-[7^7]--3-[3^3]-----------------------------------|
E]--------------3--[3^3]---5-[5^5]--5-[5^5]---------------------------------|

Shes a Motormouth, thats her name
e]--------------------------------------------------------------------------|
B]--------------------------------------------------------------------------|
G]--------------------------------------------------------------------------|
D]-5--[5^5]-----------------------------------------------------------------|
A]-3--[3^3]---5--[5^5]---7-[7^7]--3-[3^3]-----------------------------------|
E]--------------3--[3^3]---5-[5^5]--5-[5^5]---------------------------------|


Motormouth, shes insane
e]--------------------------------------------------------------------------|
B]--------------------------------------------------------------------------|
G]--------------------------------------------------------------------------|
D]-5--[5^5]-----------------------------------------------------------------|
A]-3--[3^3]---5--[5^5]---7-[7^7]--3-[3^3]-----------------------------------|
E]--------------3--[3^3]---5-[5^5]--5-[5^5]---------------------------------|

Chatter chatter chatterbox
e]-3--3--3--3--3--3--3--3---------1------------|
B]--------------------------------0------------|
G]--------------------------------2------------|
D]--------------------------------3------------|
A]-2--2--2--2--2--2--2--2----------------------|
E]-3--3--3--3--3--3--3--3----------------------|

The 5b in the next section is a bend note that Qaasim plays. If you dont like the sound 
can play around with it to find what you like or just leave it out.

Chatter chatter chatterbox
e]-3--3--3--3--3--3--3--3---------1-------------|
B]--------------------------------0-------5b----|
G]--------------------------------2-------------|
D]--------------------------------3-------------|
A]-2--2--2--2--2--2--2--2-----------------------|
E]-3--3--3--3--3--3--3--3-----------------------|
Then you play the main riff/intro 2 more times
Bah bah bah bah- Bah- Bah bah bah bah
e]--------------------------------------------------------------------------|
B]--------------------------------------------------------------------------|
G]--------------------------------------------------------------------------|
D]-5--[5^5]-----------------------------------------------------------------|
A]-3--[3^3]---5--[5^5]---7-[7^7]--3-[3^3]-----------------------------------|
E]------------3--[3^3]---5-[5^5]--1-[1^1]-----------------------------------|

Here the words in parentheses are the back-up vocals

She has got me(got me)
e]--------------------------------------------------------------------------|
B]--------------------------------------------------------------------------|
G]--------------------------------------------------------------------------|
D]-5--[5^5]-----------------------------------------------------------------|
A]-3--[3^3]---5--[5^5]---7-[7^7]--3-[3^3]-----------------------------------|
E]------------3--[3^3]---5-[5^5]--5-[5^5]-----------------------------------|

In her headlock (headlock)
e]--------------------------------------------------------------------------|
B]--------------------------------------------------------------------------|
G]--------------------------------------------------------------------------|
D]-5--[5^5]-----------------------------------------------------------------|
A]-3--[3^3]---5--[5^5]---7-[7^7]--3-[3^3]-----------------------------------|
E]--------------3--[3^3]---5-[5^5]--5-[5^5]---------------------------------|

All she does is.. (does is)
e]--------------------------------------------------------------------------|
B]--------------------------------------------------------------------------|
G]--------------------------------------------------------------------------|
D]-5--[5^5]-----------------------------------------------------------------|
A]-3--[3^3]---5--[5^5]---7-[7^7]--3-[3^3]-----------------------------------|
E]------------3--[3^3]---5-[5^5]--5-[5^5]-----------------------------------|

Talkity talk talk (Talkity talk talk)
e]--------------------------------------------------------------------------|
B]--------------------------------------------------------------------------|
G]--------------------------------------------------------------------------|
D]-5--[5^5]-----------------------------------------------------------------|
A]-3--[3^3]---5--[5^5]---7-[7^7]--3-[3^3]-----------------------------------|
E]------------3--[3^3]---5-[5^5]--5-[5^5]-----------------------------------|


Shes a Motormouth, thats her name
e]--------------------------------------------------------------------------|
B]--------------------------------------------------------------------------|
G]--------------------------------------------------------------------------|
D]-5--[5^5]-----------------------------------------------------------------|
A]-3--[3^3]---5--[5^5]---7-[7^7]--3-[3^3]-----------------------------------|
E]------------3--[3^3]---5-[5^5]--5-[5^5]-----------------------------------|

 Motormouth, shes insane
e]--------------------------------------------------------------------------|
B]--------------------------------------------------------------------------|
G]--------------------------------------------------------------------------|
D]-5--[5^5]-----------------------------------------------------------------|
A]-3--[3^3]---5--[5^5]---7-[7^7]--3-[3^3]-----------------------------------|
E]------------3--[3^3]---5-[5^5]--5-[5^5]-----------------------------------|

Chatter chatter chatterbox
e]-3--3--3--3--3--3--3--3---------1------------|
B]--------------------------------0------------|
G]--------------------------------2------------|
D]--------------------------------3------------|
A]-2--2--2--2--2--2--2--2----------------------|
E]-3--3--3--3--3--3--3--3----------------------|

Chatter chatter chatterbox
e]-3--3--3--3--3--3--3--3---------1-------------|
B]--------------------------------0----------9--|b
G]--------------------------------2-------------|
D]--------------------------------3-------------|
A]-2--2--2--2--2--2--2--2-----------------------|
E]-3--3--3--3--3--3--3--3-----------------------|


Outro: play 6 times and hold the last note* until fade out.

Bah bah bah bah- Bah- Bah bah bah bah
e]--------------------------------------------------------------------------|
B]--------------------------------------------------------------------------|
G]--------------------------------------------------------------------------|
D]-5--[5^5]-----------------------------------------5*----------------------|
A]-3--[3^3]---5--[5^5]---7-[7^7]--3-[3^3]-----3*----------------------------|
E]--------------3--[3^3]---5-[5^5]--1-[1^1]---------------------------------|

Play 5*/3* only on the last time.

Thats it! a great song from NBB please rate/comment!
Related for Motormouth tab