Song name
# A B C D E F G H I J K L M N O P Q R S T U V W X Y Z

The Nameless - Made By Finn tab

E--------------------------------|
B----1---------3---------0-------|
G---0-0-------0-0-------0-0------|
D--2---2-----2---2-----2---2-----| 2x
A-3-----3---3-----3---2-----2----|
E--------------------------------|

E-0------0-------0------------------|
B-1------3-------0------------------|
G-0------0-------0------------------|
D-2-4mal-2-4mal--2-4mal-------------| 2+X
A-3------3-------2------------------|
E-x------x-------0------------------|

E--------------------------------|
B----1---------3---------0-------|
G---0-0-------0-0-------0-0------|
D--2---2-----2---2-----2---2-----| 1x
A-3-----3---3-----3---2-----2----|
E--------------------------------|

E-0------0-------0------------------|
B-1------3-------0------------------|
G-0------0-------0------------------|
D-2-4mal-2-4mal--2-4mal-------------| 1+X
A-3------3-------2------------------|
E-x------x-------0------------------|

E--------------------------------|
B----1---------3---------0-------|
G---0-0-------0-0-------0-0------|
D--2---2-----2---2-----2---2-----| 2x
A-3-----3---3-----3---2-----2----|
E--------------------------------|

E-0------0-------0------------------|
B-1------3-------0------------------|
G-0------0-------0------------------|
D-2-4mal-2-4mal--2-4mal-------------| 2+X
A-3------3-------2------------------|
E-x------x-------0------------------|


E----------------------------------|
B----1---------3---------0---------|
G---0-0-------0-0-------0-0--------|
D--2---2-----2---2-----2---2-------| 2x
A-3-----3---3-----3---2-----2------|
E----------------------------------|

--0--------------------------------|
--0--------------------------------|
--0--------------------------------|x
--2--------------------------------|
--2--------------------------------|
--0--------------------------------|
made by finn finn_07_@hotmail.de
Tap to rate this tab
# A B C D E F G H I J K L M N O P Q R S T U V W X Y Z