Guitaretab - guitar tabs
Song name
# A B C D E F G H I J K L M N O P Q R S T U V W X Y Z

The National - Start A War tab

Artist: The National
 Album: Boxer
  Song: Start A War

Tabbed by: Bruce Miller (transcribed from the guy who plays this on YouTube)
(Taken from indieguitartabs.com)


The key is to pluck the high notes (B and e) together, and to watch for the
little pattern change at the beginning of the chorus.

Capo at 5

[verse]
e|----3-----3-----3----3--|---3-----3----3----3---|
B|----3-----3-----3----3--|---3-----3----3----3---|
G|---0-0---0-0---0-0--0-0-|--0-0---0-0--0-0--0-0--|
D|------------------------|-----------------------|
A|------------------------|-3-----0---------------|
E|--3-----0-----2----3----|------------3----3-----|
   We expected something...

[chorus]
e|----3--------3-----3------3-----3----3--|
B|----3--------3-----3------3-----3----3--|
G|---0-0--0-0-0-0---0-0----0-0---0-0--0-0-|
D|----------------------------------------|
A|-----------------3------3---------------|
D|-0-----0-2-3-----------------3-----3----|
   Walk away now and you're gonna start a war...

[lyrics]
[ Tab from: http://www.guitaretab.com/t/the-national/157865.html ]
We expected something, something better than before. we expected something more
do you really think you can just put it in a safe behind a painting, lock it up and leave
do you really think you can just put it in a safe behind a painting, lock it up and leave
walk away now and you're gonna start a war

Whatever went away I'll get it over now. I'll get money, I'll get funny again
whatever went away I'll get it over now. I'll get money, I'll get funny again
walk away now and you're gonna start a war

We expected something, something better than before. we expected something more
you were always weird but I never had to hold you by the edges like I do now
you were always weird but I never had to hold you by the edges like I do now
Walk away now and you're gonna start a war

Whatever went away I'll get it over now. I'll get money, I'll get funny again
whatever went away I'll get it over now. I'll get money, I'll get funny again
walk away now and you're gonna start a war
walk away now and you're gonna start a war
Related for Start A War tab
Advertisement will be closed in 10 seconds