Song name
# A B C D E F G H I J K L M N O P Q R S T U V W X Y Z

The National - Gospel tab

-------------------------------------------------------------------------------
			     Gospel - The National
-------------------------------------------------------------------------------

Tabbed by: Yoshima

Tuning: Standard

Chords used;


.....C......G......F......E.....Am.....Dm.....E7#5....
e|---0------3------1------0------0------1-----------|
B|---1------3------1------0------1------3------5----|
G|---0------0------2------1------2------2------5----|
D|---2------0------3------2------2------0------0----|
A|---3------2------3------2------0------0------x----|
E|----------3------1------0--------------------4----|

Note: This is an arrangement for one guitar.... The chords are a combination of the 
guitar and piano arrangement in the recorded version. The intro and verse parts are
mostly taken from the acoustic version as seen on the vincent moon video (its on youtube).
There is a strange chord in there, E7#5, but it is right.... i've checked.
You can play the tab or just strum the chords....

>>>>>>>>>>>>>>>>>>>>>>>>>>>>>>>>>>>>>>>>>>>>>>>>>>>>>>>>>>>>


Intro;

.....C........G........C........F..........
e|----------------------------------------|
B|---5--------3--------5--------1---------|
G|-----5---5----0---0----5---5----0-------|
D|----------------------------------------|
A|---3---3--------------------------------|
E|------------5---5----3---3----1---1-0---|

.^. x2

then;

.....C........G........C........F..........
e|----------------------------------------|
B|---5--------3---6----5--------1---------|
G|-----5---5----0---0----5---5----0-------|
D|----------------------------------------|
A|---3---3--------------------------------|
E|------------5---5----3---3----1---1-0---|


.....C........G........C........E.......Am......G........E.......Am....
e|---------------------------------------0---------------0--------0---|
B|---5--------3---6----5--------0--------1------3----------0---0--1---|
G|-----5---5----0---0----5---5----1---1--2--------0---0------1----2---|
D|---------------------------------------2---------------2--------2---|
A|---3---3--------------------------2----0------------------------0---|
E|------------5---5----3---3----0---------------3---3-----------------|


>>>>>>>>>>>>>>>>>>>>>>>>>>>>>>>>>>>>>>>>>>>>>>>>>>>>>>>>>>>>


Verse; either continue with similar picking pattern as above of just strum.

C.........G...........C............F..
I got two armfuls of magazines for you

C.............G.....C....F....
I値l bring em over

...C.................G.........C...........F.....
so hang your holiday rainbow lights in the garden

C..................G......C..............E.........Am..
hang your holiday rainbow lights in the garden and I値l

G............E........Am..........
I値l bring a nice icy drink to you

>>>>>

C...........F..........Am......... E7#5....Am...
Let me come over I can waste your time I知 bored

Dm...............Am........E7#5..........F.....
invite me to the war every night of the summer

..........C....F....Am.....E7#5..Am...
and we値l play G.I. blood, G.I. blood

......Dm..........Am...
we値l stand by the pool

......E7#5..........F...............
we値l throw out our golden arms


>>>


C..............F......C.....
Darlin can you tie my string

C...........F.........C.
killers are callin on me

Dm........C.......G.....
my angel face is fallin

Dm............C............G...
feathers are fallin on my feet

Am.............C......F.....
darlin can you tie my string

Am..........C.........F....
killers are callin on me


>>>>>>>>>>>>>>>>>>>>>>>>>>>>>>>>>>>>>>

Then; play intro x 2....

C............G..C..............F.........
Stay near your, stay near your television

C.....G................C.......F.......
......set it up outside

....C.................F.......C.............F.....
and hang your holiday rainbow lights in the garden

C.................F........C............E..........Am..
hang your holiday rainbow lights in the garden and I値l

G............E........Am..........
I値l bring a nice icy drink to you


>>>>>>


C...........F..........Am.........E7#5.....Am...
Let me come over I can waste your time I知 bored

Dm..............Am.........E7#5.........F.....
invite me to the war every night of the summer

..........C....F....Am.....E7#5..Am..
and we値l play G.I. blood, G.I. blood

......Dm..........Am..
we値l stand by the pool

......E7#5..........F..........
we値l throw out our golden arms


>>>>>


C..............F......C.....
Darlin can you tie my string

C...........F.........C.
killers are callin on me

Dm........C.......G.....
my angel face is fallin

Dm............C............G...
feathers are fallin on my feet

Dm........C.......G.....
my angel face is fallin

Dm............C............G...
feathers are fallin on my feet

Am.............C......F.....
darlin can you tie my string

Am..........C.........F....
killers are callin on me

>>>>>>>>>>>>>>>>>>

END.
Tap to rate this tab
# A B C D E F G H I J K L M N O P Q R S T U V W X Y Z