Song name
# A B C D E F G H I J K L M N O P Q R S T U V W X Y Z

The National - Slow Show tab

Without the capo:
|----------------------------------------------|
|----------------------------------------------|
|----------------------------------------------|
|---6-4h6--6-4h6-777--------777------4-4h6-4---|
|---4---4--4---4-----777-------777-------------|
|----------------------------------------------|

With capo 4.
|----------------------------------------------|
|----------------------------------------------|
|----------------------------------------------|
|---2-0h2--2-0h2-333--------333------0-0h2-0---|
|---0---0--0---0-----333-------333-------------|
|----------------------------------------------|
Tap to rate this tab
# A B C D E F G H I J K L M N O P Q R S T U V W X Y Z