Song name
# A B C D E F G H I J K L M N O P Q R S T U V W X Y Z

The National - The Geese Of Beverly Road tab

Someone already posted the chords and stuff but the big lead riff (why most people need the tab),
was not being done justice. I'm gonna put the words so they line up over their corresponding notes
just to give you the general timing.  
Here it is:  
                                                                    

    X   We   set  off  the  geese   of   Bev  -erly   Road

|------------------------------------------------------------------------|
|------------------------------------------------------------------------|
|-------------5---------5-----7-----9-----7------5-----------------------|
|---7---/7---------7-----------------------------------7/5---------------|
|------------------------------------------------------------------------|
|------------------------------------------------------------------------|

and the afterthought:

Also, i suspect that alot of the notes from here on are slided (or slid...slidden?),
just done really subtly and quick, but makes it sound so authentic.

|-----------------------------------------------------------------------|
|-----------------------------------------------------------------------|
|-----------------------------------------------------------------------|
|------------5-------------------------5--------------------------------|
|-------/7-------7---5---3--3---5-s-7-----------------------------------|
|-----------------------------------------------------------------------|


I'm sure if youre looking this up you know the lyrics.

High Violet in MAY!!!!!!!! cant wait!
Tap to rate this tab
# A B C D E F G H I J K L M N O P Q R S T U V W X Y Z