Song name
# A B C D E F G H I J K L M N O P Q R S T U V W X Y Z

The National - The Runaway tab

Artist: The National
Song: Runaway
Album: High Violet
Tabbed by: Don Tago
Email: recebedou@yahoo.com


Standard Tuning:


Intro/verse tab:
Line 1:
e|--------------------------------------------------|
B|--------------------------------------------------|
G|-----1-----1-----1-----1-----2-----2-----2-----2--|
D|---2-----2-----2-----2-----2-----2-----2-----2----|
A|-------------------------0-----0-----0-----0------|
E|-0-----0-----0-----0------------------------------|

Line 2:
e|--------------------------------------------------|
B|--------------------------------------------------|
G|-----1-----1-----1-----1-----1-----1-----1-----1--|
D|---2-----2-----2-----2----------------------------|
A|---------------------------2-----2-----2-----2----|
E|-0-----0-----0-----0-----4-----4-----4-----4------|




Chorus 1 tabs: 

:repeat lines 1 and 2 [x2], then

Line 3:
  ...flood             We got a...
e|--------------------------------------------------|
B|------2-----2-----2-----0-------------------------|
G|------------------------------2-----2-----2-----2-|
D|----2-----2-----2-----2-----2-----2-----2-----2---|
A|--4-----4-----4-----2-----0-----0-----0-----0-----|
E|--------------------------------------------------|

Line 4:
  ...undone             And its...
e|-----0-----0-----0-----0--------------------------|
B|-----------------------------4-----4-----4-----4--|
G|--------------------------------------------------| 
D|---2-----2-----2-----2-----4-----4-----4-----4----|
A|-------------------------2-----2-----2-----2------|
E|-0-----0-----0-----0------------------------------|

:then, repeat lines 3 and 4 [x3] during rest of chorus




Chorus 2 tabs:

:repeat lines 1 and 2 [x3], then

:repeat lines 3 and 4 [x6]



-------------------------------------------------------------

Song structure:



Intro: [use intro/verse tab]


Verse: [use intro/verse tab]
There's no savin' anything
I'll swallow the shine of the sun
There's no savin' anything
I'll swallow the sun


Chorus 1: [use Chorus 1 tab]
But I won't a runaway, 'cause I won't run
No, I won't be a runaway
What makes you think I enjoy being led to the flood?
We've got another thing comin' undone
And it's takin' us over
We don't bleed when we don't fight
Go ahead go ahead throw your arms in the air tonight
We don't bleed when we don't fight
Go ahead go ahead throw our shirts in the fire tonight
What makes you think I enjoy being led to the flood?
We've got another thing comin' undone


Chorus 2: [use chorus 2 tab]
But I won't be no runaway 'cause I won't run
No, I won't be a runaway 'cause I won't run
But I won't be no runaway
What makes you think I enjoy being led to the flood?
We've got another thing comin' undone
And it's takin' forever
We don't bleed when we don't fight
Go ahead go ahead throw your arms in the air tonight
We don't bleed when we don't fight
Go ahead go ahead throw our shirts in the fire tonight
What makes you think i enjoy being led to the flood?
We got another thing comin' undone, we got another thing comin' undone
And it's taking forever


Verse: [use intro/verse tab]
I go breaking everything
With you swallowing the shine of the sun
I'll go breaking everything
With you swallowing the sun


Chorus 3: [use chorus 2 tab]
But I won't be no runaway, cause I won't run
No, I won't be no runaway, cause I won't run
No, I won't be no runaway
What makes you think I enjoy being led to the flood?
We got another thing comin' undone
And it's taking us over
We don't bleed when we don't fight
Go ahead go ahead throw your arms in the air tonight
We don't bleed
Go ahead go ahead throw our shirts in the fire tonight
What makes you think I enjoy being led to the flood?
We got another thing coming undone, we got another thing coming undone
And it's taking us over
And it's taking forever
Tap to rate this tab
# A B C D E F G H I J K L M N O P Q R S T U V W X Y Z