Song name
# A B C D E F G H I J K L M N O P Q R S T U V W X Y Z

The National - Baby Well Be Fine tab

========================
ARTIST: THE NATIONAL
SONG: BABY WE'LL BE FINE
========================

This is my interpretation of the song for accoustic guitar.
I play this a bit slower than the original and with a kind of
rolling rhythm - 1 & 2 & etc with the open G notes on &

I also mix up the hammers and high notes on the verse a wee bit

Hope you enjoy!



VERSE

e -2-------0-------3----2--0-----------0-----------|
B -----3------3h0----------------0-----------0-----|
G ----------------------------0-----0-----0-----0--|
D -------------------------------------------------|
A -2-------0---------------------------------------|
E -----------------3-------0-----0-----0-----0-----|


e -2-------0-----5--3---2--0-----------0-----------|
B ----3h0------------------------0-----------0-----|
G ------------0---------------0-----0-----0-----0--|
D -------------------------------------------------|
A -2-------0---------------------------------------|
E ------------------3------0-----0-----0-----0-----|



BRIDGE

e -------------------0-----3-----------3-----------|
B -1-----0-----3-----------------0-----------0-----|
G ----0-----0-----0-----0-----0-----0-----0-----0--|
D -------------------------------------------------|
A -3-----------2-----0-----------------------------|
E -------3-----------------0-----0-----0-----0-----|


e -------------------0-----3-----------3-----------|
B -1-----0-----3-----------------0-----------0-----|
G ----0-----0-----0-----0-----0-----0-----0-----0--|
D -------------------------------------------------|
A -3-----------2-----0-----------------------------|
E -------3-----------------0-----0-----0-----0-----|


e -------------------0-----|
B -1-----0-----3-----------|
G ----0-----0-----0-----0--|
D -------------------------|
A -3-----------2-----0-----|
E -------3-----------------|



CHORUS

e -3-----3-----0-----------------------------------|
B -------------------0-----0-----0-----1-----0-----|
G ----0-----0-----0-----0-----0-----0-----0-----0--|
D -2-----0-----------------------------------------|
A -------------3-----------------2-----3-----2-----|
E -------------------3-----3-----------------------|



VERSE  x4
All night I lay on my pillow and pray
For my boss to stop me in the hallway
Lay my head on his shoulder and say
Son, I've been hearing good things

I wake up without warning and go flying around the house
In my sauvignon fierce, freaking out
Take a forty-five minute shower and kiss the mirror
And say, look at me
Baby, we'll be fine 

BRIDGE x1
All we gotta do is be brave and be kind
I put on an argyle sweater and put on a smile
I don't know how to do this

CHORUS x2
I'm so sorry for everything

VERSE x3
Baby, come over, I need entertaining
I had a stilted, pretending day
Lay me down and say something pretty
Lay me back down where I wanted to stay

Just say something perfect, something I can steal
Say, look at me
Baby, we'll be fine

BRIDGE x1
All we've gotta do is be brave and be kind
I pull off your jeans, and you spill jack and coke in my collar
I melt like a witch and scream

CHORUS x4
I'm so sorry for everything
Tap to rate this tab
# A B C D E F G H I J K L M N O P Q R S T U V W X Y Z