Song name
# A B C D E F G H I J K L M N O P Q R S T U V W X Y Z

The National - Baby Well Be Fine tab

Song: Baby We'll Be Fine
Artist: The National
Tabbed by: Jpencz (couchy@gmail.com)

Standard tuning

Note the A chord he only plays the D and G strings leaving B open. 


Intro:

    Bm     A      G      Em

e|--2------0------3------0-------------0--------------------|
B|------3------0------0------0--0---0------0--0---0---------|
G|----4------2------0------0------0------0------0-----------|
D|---4------2------0------2------2------2------2------------|
A|----------------------------------------------------------|
E|----------------------------------------------------------| x1



Verse:

"All night I lay on my pillow and pray..."

    Bm     A      G      Em

e|--2------0------3------0-------------0--------------------|
B|------3------0------0------0--0---0------0--0---0---------|
G|----4------2------0------0------0------0------0-----------|
D|---4------2------0------2------2------2------2------------|
A|----------------------------------------------------------|
E|----------------------------------------------------------| x4

"...For my boss to stop me in the hallway..."                        

                                 
    Bm     A        G      Em                                          
                                                                            
e|--2------0---3/5--3------0-------------0------------------|
B|------3---------------0------0--0---0------0--0---0-------|
G|----4------2--------0------0------0------0------0---------|
D|---4------2--------0------2------2------2------2----------|
A|----------------------------------------------------------|
E|----------------------------------------------------------| x4



Bridge:

"...All we gotta do is be brave and be kind..."

    C      Em     Dm     Am     Em 

e|------------------------------0-------------0-------------|
B|--1---1--0---0--3---3--1---1------0--0---0------0--0---0--|
G|----0------0------2------2------0------0------0------0----|
D|---2------2------0------2------2------2------2------2-----|
A|----------------------------------------------------------|
E|----------------------------------------------------------| x2

"...I don't know how to do this..."

    C      Em     Dm     Am    

e|------------------------------|
B|--1---1--0---0--3---3--1---1--|
G|----0------0------2------2----|
D|---2------2------0------2-----|
A|------------------------------|
E|------------------------------| x1



Chorus:

"I'm so sorry for everything..." 

    G      Em     c      G
 
e|--3------0-------------3------|
B|------0------0--1---1------0--|
G|----0------0------0------0----|
D|---0------2------2------0-----|
A|------------------------------|
E|------------------------------| x4


Repeat through once, starting at the Intro

The second time through the Chorus becomes the Outro, goes x9 or so as it fades out
Tap to rate this tab
 
# A B C D E F G H I J K L M N O P Q R S T U V W X Y Z