The National - The Runaway tab

song      : runaway
artist    : the national
tabbed by : oneshotnothing


standard tuning

pretty straightforward, this should be the whole song for rhythm guitar
repeat each section as necessary


INTRO/VERSE

e-|------------------------------------------------|
b-|------------------------------------------------|
g-|------------------------------------------------|
d-|----6-----6-----6-----6-----7-----7-----7-----7-|
a-|--7-----7-----7-----7-----4-----4-----4-----4---|
E-|0-----0-----0-----0-----0-----0-----0-----0-----|


e-|------------------------------------------------|
b-|------------------------------------------------|
g-|------------------------------------------------|
d-|----6-----6-----6-----6-----6-----6-----6-----6-|
a-|--2-----2-----2-----2-----2-----2-----2-----2---|
E-|0-----0-----0-----0-----4-----4-----4-----4-----|


CHORUS

e-|------------------------------------------------|
b-|------------------------------------------------|
g-|------------------------------------------------|
d-|----11----11----9-----9-----7-----7-----7-----7-|
a-|--7-----7-----7-----7-----4-----4-----4-----4---|
E-|9-----9-----9-----9-----5-----5-----5-----5-----|


e-|------------------------------------------------|
b-|------------------------------------------------|
g-|----9-----9-----9-----9-------------------------|
d-|--9-----9-----9-----9-------9-----9-----9-----9-|
a-|11----11----11----9-------9-----9-----9-----9---|
E-|------------------------11----11----11----11----|
Tap to rate this tab
 
# A B C D E F G H I J K L M N O P Q R S T U V W X Y Z