Song name
# A B C D E F G H I J K L M N O P Q R S T U V W X Y Z

The National - About Today tab

Whatever tuning you like. I usually keep my guitar tuned down a half-step.
Techincally "should" be standard. If you want to play along with the song use standard.

This tab is pretty much like Ver 2, but this one has the "extra notes" that the other 
guy was talking about.


Verse Riff

e -3---------3----|-0---------0----|-0--------------|----------------|
B ------1------1--|------1------1--|-----------1----|-1---------1----|
G ----2----2------|----2----2------|------2------2--|------2------2--|
D -3--------------|-3--------------|----2----2------|----2----2------|
A ----------------|----------------|-0--------------|-0--------------|
E ----------------|----------------|----------------|----------------|

e -0--------------|----------------|----------------|----------------|
B -----------1----|-1---------1----|-0---------0----|-0---------0----|
G ------2------2--|------2------2--|------0------0--|------0------0--|
D ----2----2------|----2----2------|----0----0------|----0----0------|
A -0--------------|-0--------------|----------------|----------------|
E ----------------|----------------|-3--------------|-3--------------|


Chorus Riff

e ----------------|----------------|----------------|----------------|
B -1---------1----|-1---------1----|-1---------1----|-1---------1----|
G ------0------2--|------0------2--|------0------2--|------0------2--|
D ----2----2------|----2----2------|----2----2------|----2----2------|
A -3--------------|-3--------------|-3--------------|-3--------------|
E ----------------|----------------|----------------|----------------|

e ----------------|----------------|----------------|----------------|
B -0---------0----|-0---------0----|-0---------0----|-0---------0----|
G ------0------0--|------0------0--|------0------0--|------0------0--|
D ----2----2------|----2----2------|----2----2------|----2----2------|
A ----------------|-2--------------|----------------|-2--------------|
E -0--------------|----------------|-0--------------|----------------|

e -1---------1----|-3---------3----|-1---------1----|-0---------0----|
B ------1------1--|------1------1--|------1------1--|------1------1--|
G ----2----2------|----2----2------|----2----2------|----2----2------|
D -3--------------|-3--------------|-3--------------|-3--------------|
A ----------------|----------------|----------------|----------------|
E ----------------|----------------|----------------|----------------|

e ----------------|----------------|----------------|----------------|
B -0---------0----|-0---------0----|-0---------0----|-0---------0----|
G ------0------0--|------0------0--|------0------0--|------0------0--|
D ----0----0------|----0----0------|----0----0------|----0----0------|
A ----------------|----------------|----------------|----------------|
E -3--------------|-3--------------|-3--------------|-3--------------|
Tap to rate this tab
# A B C D E F G H I J K L M N O P Q R S T U V W X Y Z