Song name
# A B C D E F G H I J K L M N O P Q R S T U V W X Y Z

The National - I Need My Girl tab

The song is too easy to play. If anything is wrong, please contact me on my facebook: 
http://www.facebook.com/kkramsib
I hope you enjoy ^^

CAPO 3


e|-------3h0------------------3h0-------------|
B|---1h3-----1------------1h3-----1-----------|
G|------------2---------------------0---------|
D|-------------2------3---------------3-------|
A|-0------------------------------------------|
E|--------------------------------------------|


e|-------3h0------------------3h0-------------|
B|---1h3-----1------------1h3-----1-----------|
G|------------0---------------------0---------|
D|-------------2----------------------0-------|
A|-3------------------2-----------------------|
E|--------------------------------------------|
Tap to rate this tab
# A B C D E F G H I J K L M N O P Q R S T U V W X Y Z