Song name
# A B C D E F G H I J K L M N O P Q R S T U V W X Y Z

The National - Rains Of Castamere tab

Standard tuning

(/) Slide Up  (\) Slide Down  (h) Hammer On  (p) Pull Off  (b) Bend (r) Release (v) Vibrato


E|-----1-----0-----1--3--0-----3--1--0-----0-----5--5--6--3--------5--6--3-----6--5--3--1--0-----|
B|--------------------------------------3--------------------------------------------------------|
G|--2-----2-----2-----------2-----------------5--------------5--5-----------5--------------------|
D|-----------------------------------------------------------------------------------------------|
A|-----------------------------------------------------------------------------------------------|
E|-----------------------------------------------------------------------------------------------|



E|--------1-----0--------1--3--0-----3--1--0-----0-----5--6--3-----5--6--3-----6--5--3--1-----|
B|--------------------------------------------3--------------------------------------------3--|
G|--2--2-----2-----2--2-----------2-----------------5-----------5-----------5-----------------|
D|--------------------------------------------------------------------------------------------|
A|--------------------------------------------------------------------------------------------|
E|--------------------------------------------------------------------------------------------|



E|-----0--1-----1--0-----------0--1-----1--0-----0--1-----5--5--3-----3--1-----0--1-----|
B|-----------3--------3--1-----------3-----------------3-----------3--------3--------3--|
G|--2-----------------------2-----------------3-----------------------------------------|
D|--------------------------------------------------------------------------------------|
A|--------------------------------------------------------------------------------------|
E|--------------------------------------------------------------------------------------|



E|-----0--1-----5--5--3-----3--1-----5h3--0h1-----|
B|-----------3-----------3--------3------------3--|
G|--3---------------------------------------------|
D|------------------------------------------------|
A|------------------------------------------------|
E|------------------------------------------------|
Tap to rate this tab
# A B C D E F G H I J K L M N O P Q R S T U V W X Y Z