Song name
# A B C D E F G H I J K L M N O P Q R S T U V W X Y Z

The National - I Need My Girl tab

-------------------------------------------------------------------------------
                             I NEED MY GIRL - The National
-------------------------------------------------------------------------------
Tabbed by: k8mc
E-mail: x_k8_xx@yahoo.co.uk

Tuning: standard

 |1 . + . 2 . + . 3 . + . 4 . + . |

e|------------3p0-----------------|------------3p0-----------------|
B|--------------1h3p1-------------|--------1-----1h3p1-------------|
G|--------2-----------2-------2---|----0---------------0-------0---|
D|----2-------------------2-------|3-----------------------3-------|
A|0-------------------------------|--------------------------------|
E|--------------------------------|--------------------------------|

e|------------3p0-----------------|------------3p0-----------------|
B|--------------1h3p1-------------|--------------1h3p1-------------|
G|--------0-----------0-------0---|--------0-----------0-------0---|
D|----2-------------------2-------|----0-------------------0-------|
A|3-------------------------------|2-------------------------------|
E|--------------------------------|--------------------------------|

************************************

| /   slide up
| \   slide down
| h   hammer-on
| p   pull-off
| ~   vibrato
| +   harmonic
| x   Mute note
| b   Bend
| () optional

************************************
Tap to rate this tab
 
# A B C D E F G H I J K L M N O P Q R S T U V W X Y Z