Song name
# A B C D E F G H I J K L M N O P Q R S T U V W X Y Z

The National - This Is The Last Time Acoustic tab

-------------------------------------------------------------------------------
                             THIS IS THE LAST TIME - The National
-------------------------------------------------------------------------------
Tabbed by: SHOTTOMAN

Such an awesome song from Trouble Will Find Me. Tabbed from this great video: 
http://www.youtube.com/watch?feature=player_embedded&v=TdFCD3oXMZo

Tuning: Standard (Capo III)

Intro/Verses:

e|---------------------------------------------------------------------------|
B|---------------------------------------------------------------------------|
G|---2--2\4/2p0----------------------2--2\4/2p0------------------------------|
D|----------------2--2\4/2p0----------------------2--2\4/2p0-----------------|
A|------------------------------2-------------------------------2------------|
E|---------------------------------------------------------------------------|

Basically pick and/or strum around this pattern until "Jenny I am in trouble.."

Outro:
          Am           Em*            C             G
e|-----0--------1--------0-------0-------------------------------------------|
B|-----1--------0--------1-------3-------------------------------------------|
G|-----2--------0--------0-------0-------------------------------------------|
D|-----2--------2--------2-------0-------------------------------------------|
A|-----0--------2--------3-------2-------------------------------------------|
E|-----0--------0--------x-------3-------------------------------------------|

Am            Em*
Jenny I am in trouble

C                       G
Can't get these thoughts out of me

Am               Em*
Jenny I'm seeing double

C                 G
I know this changes everything
[X2]

          Am     Em*  C      G
It takes a lot of rain in the cup

          Am     Em*      C       G
It takes a lot of pain to pick me up

          Am     Em*  C      G
It takes a lot of rain in the cup

          Am     Em*      C       G
It takes a lot of pain to pick me up

Am      Em*      C        G
Baby you gave me pain and tears

Am     Em*      C        G
Baby you left me sad and high



************************************

| /   slide up
| \   slide down
| h   hammer-on
| p   pull-off
| ~   vibrato
| +   harmonic
| x   Mute note
| b   Bend
| pb  Pre-bend
| br  Bend release
| pbr Pre-bend release
| brb Bend release bend

************************************
Tap to rate this tab
# A B C D E F G H I J K L M N O P Q R S T U V W X Y Z