Song name
# A B C D E F G H I J K L M N O P Q R S T U V W X Y Z

The National - I Need My Girl tab

-------------------------------------------------------------------------------
                             I NEED MY GIRL - The National
-------------------------------------------------------------------------------
Tabbed by: David

I've seen a few versions of this up, but they all have this funky
pull-off hammer thing that doesn't fit with the rhythm. The way I
play it is a pull-off 3 to 0 on string 1, and then with the same rhythm
pick string 2 and 3 in whichever chord shape I'm using. So the pull-off
is done at the same speed as picking 2 and 3.


Tuning: Standard - Capo 3rd Fret

Chords:
Amin: X02210
F:    XX3210
C:    X32010
G/B?: X20030

   1 * + * 2 * + * 3 * + * 4 * + * 1 * + * 2 * + * 3 * + * 4 * +
e|-------------3p0-----------------------------3p0----------------------------|
B|---------1-----------1-------------------1-----------1----------------------|
G|-----2-----------------2-----2-------2-----------------2-----2--------------|
D|-------------------------2-------3-----------------------3------------------|
A|-0--------------------------------------------------------------------------|
E|----------------------------------------------------------------------------|

e|-------------3p0-----------------------------3p0---------------------------|
B|---------1-----------1-------------------3-----------3---------------------|
G|-----0-----------------0-----0-------0-----------------0-----0-------------|
D|-------------------------2-------------------------------0-----------------|
A|-3-------------------------------2-----------------------------------------|
E|---------------------------------------------------------------------------|


I hope that sounds right to you guys too.
Tap to rate this tab
 
# A B C D E F G H I J K L M N O P Q R S T U V W X Y Z