Song name
# A B C D E F G H I J K L M N O P Q R S T U V W X Y Z

The National - This Is The Last Time tab

This is SHOTTOMAN's tab with corrections. I originally posted it as a comment on that 
tab but decided to post it separately as well lest it get buried under other comments.

Tuning: Standard (Capo III)

Intro/Verses:
"oh when i lift you up.."
e|---------------------------------------------------------------------------|
B|---------------------------------------------------------------------------|
G|---2--2\4/2p0----------------------2--2\4/2p0------------------------------|
D|----------------2--2\4/2p0----------------------2--2\4/2p0-----------------|
A|------------------------------3-------------------------------3------------|
E|---------------------------------------------------------------------------|

"this is the last time"
e|---------------------------------------------------------------------------|
B|---------------------------------------------------------------------------|
G|---------------------------------------------------------------------------|
D|---2----2/4\2p0---------------------------2---2/4\2p0----------------------|
A|-------------------3----3/5\3p0------------------------3----3/5\3p0--------|
E|---------------------------------3-----------------------------------3-----|

Basically pick and/or strum around this pattern until "Jenny I am in trouble.."

Outro:

Dm            Am*
Jenny I am in trouble

F                       c
Can't get these thoughts out of me

Dm               Am*
Jenny I'm seeing double

F                 C
I know this changes everything
[X2]

          Dm     Am*  F      C
It takes a lot of rain in the cup

          Dm     Am*  F      C
It takes a lot of pain to pick me up

          Dm     Am*  F      C
It takes a lot of rain in the cup

          Dm     Am*  F      C
It takes a lot of pain to pick me up

Dm     Am*        F        C
Baby you gave me pain and tears

Dm     Am*        F        C
Baby you left me sad and high
Tap to rate this tab
# A B C D E F G H I J K L M N O P Q R S T U V W X Y Z