Song name
# A B C D E F G H I J K L M N O P Q R S T U V W X Y Z

The National - Fireproof chords

Highlighted       Show chord diagrams
-------------------------------------------------------------------------------
                             Fireproof - The National
-------------------------------------------------------------------------------
Tabbed by: cdosborn

Tuning: Standard

Note: These are the chords that will allow you to play along with the song accurately.



Progression is D#m, G#, F#, G#
      D#m           G#
e|------------4----------------------------------------------------------------|
B|--7---------4----------------------------------------------------------------|
G|--6---------4----------------------------------------------------------------|
D|--8---------6----------------------------------------------------------------|
A|--6--------------------------------------------------------------------------|
E|-----------------------------------------------------------------------------|


D#m                    G#
You keep a lot of secrets
F#          G#
And I keep none
D#m            G#
Wish I could go back
F#         G#
And keep some

             D#m
You're fireproof
         F#             G#
Nothing breaks your heart
         D#m
You're fireproof
F#                      G#
It's just the way you are

D#m                 G#
You tell me I'm waiting
F#             G#
To find someone
D#m              G#
Who isn't so hopeless
F#               G#
But there's no one

             D#m
You're fireproof
            F#            G#
Nothing breaks your heart
            D#m
You're fireproof
           F#         G#
How'd you get so far

                       D#m
You're a needle in the hay
                    F#        G#
You're the water at the door
                        D#m
You're a million miles away
                F#         G#
Doesn't matter anymore

D#m                             G#
Jennifer you are not the only reason
F#                            G#
My head is boiling and my hands are freezing
D#m                       G#
Jennifer you are not the only one
F#                                    G#
To sit awake until the wild feelings leave you

            D#m
You're fireproof
           F#             G#
Nothing breaks your heart
             D#m
You're fireproof
              F#          G#
It's just the way you are

             D#m
You're fireproof
              F#         G#
It's what you always say
               D#m
You're fireproof
            F#           G#
I wish I was that way
Tap to rate this tab
# A B C D E F G H I J K L M N O P Q R S T U V W X Y Z