Song name
# A B C D E F G H I J K L M N O P Q R S T U V W X Y Z

The National - I Need My Girl chords

Highlighted       Show chord diagrams
I Need My Girl - The National

Capo 3rd fret


Am: x02213   Fmaj7: xx3213   C: x32013   Gsus4: 320013


t= thumb   i= index finger   m= middle finger   r= ring finger
 

   t   i   m   r    i   t  i          t   i   m   r    i   t  i
e|-------------3p0--------------------------------3p0------------------------|
B|---------1----------------------------------1------------------------------|
G|-----2------------3p2----2--------------2------------3p2----2--------------|
D|----------------------2-------------3--------------------3-----------------|
A|-0-------------------------------------------------------------------------|
E|---------------------------------------------------------------------------|
   Am                                 Fmaj7


   t   i   m   r   i   t  i        t   i   m   r   i   t  i
e|-------------3p0-----------------------------3p0---------------------------|
B|---------1-------------------------------1---------------------------------|
G|-----0-----------3p0----0------------0-----------3p0----0------------------|
D|---------------------2-------------------------------0---------------------|
A|-3-------------------------------2-----------------------------------------|
E|---------------------------------------------------------------------------|
   C                               Gsus4




Intro: Am Fmaj7 C G

Am            Fmaj7
I am good but I am grounded
C               Gsus4
Davey says that I look taller
Am             Fmaj7    
I can't get my head around it
C              Gsus4
I keep feeling smaller and smaller

Am  Fmaj7    C       G
I---  need my girl
Am  Fmaj7    C       G
I---  need my girl

Am                Fmaj7
Remember when you lost your shit and
C               Gsus4
Drove the car into the garden
Am              Fmaj7
You got out and said "I'm sorry"
C              Gsus4
To the vines and no one saw it

Am  Fmaj7    C      Gsus4
I---  need my girl
Am  Fmaj7    C      Gsus4
I---  need my girl

              Am        Fmaj7
I'm under the gun again
 C            Gsus4       Am     Fmaj7
I know I was a 45-percenter then
C             Gsus4
I know I was a lot of things

    Am           Fmaj7
But I am good but I am grounded
C              Gsus4
Davey says that I look taller
Am            Fmaj7    
I can't get my head around it
C             Gsus4
I keep feeling smaller and smaller

Am  Fmaj7    C      Gsus4
I---  need my girl
Am  Fmaj7    C      Gsus4
I---  need my girl

Am Fmaj7 C Gsus4(x2)

Am                      Fmaj7
There's some things that I should never
C              Gsus4
Laugh about in front of family
Am            Fmaj7
In a week we'll be together
C              Gsus4
Try to call you when I'm landing

Am  Fmaj7    C      Gsus4
I---  need my girl
Am  Fmaj7    C      Gsus4
I---  need my girl

Am              Fmaj7
Remember when you said "I'm sorry"
C                Gsus4
To the vines and no one saw it
Am                  Fmaj7
I'll try to call you from the party
C                     Gsus4
It's full of punks and cannonballers

Am  Fmaj7    C       G
I---  need my girl
Am  Fmaj7    C       G
I---  need my girl

              Am        Fmaj7
I'm under the gun again
 C            Gsus4       Am     Fmaj7
I know I was a 45-percenter then
C             Gsus4
I know I was a lot of things

    Am           Fmaj7
But I am good but I am grounded
C              Gsus4
Davey says that I look taller
Am            Fmaj7    
I can't get my head around it
C             Gsus4
I keep feeling smaller and smaller


Am   Fmaj7       C             Gsus4  
(I---  need my girl) 
               I keep feeling smaller and smaller
Am   Fmaj7       C             Gsus4  
(I---  need my girl) 
               I keep feeling smaller and smaller


Am Fmaj7 C Gsus4
Tap to rate this tab
 
# A B C D E F G H I J K L M N O P Q R S T U V W X Y Z