Song name
# A B C D E F G H I J K L M N O P Q R S T U V W X Y Z

The National - I Should Live In A Salt tab

Chords: C, D, Am, Am7, F, G, Bm

      C   D   Am Am7  F   G   Bm
E||---0---0---0---3---1---3---0---|
B||---1---3---1---1---1---3---3---|
G||---0---0---2---2---2---4---4---|
D||---2---4---2---2---3---5---4---|
A||---3---5---0---0---3---5---0---|
E||---3---5---x---x---x---x---x---|


Strumming:

Verse

      C                   D  C  Am F                   G  F
E||---0--0--0--0--0--0--0-0--0--0--1--1--1--1--1--1--1/3--1---|
B||---1--1--1--1--1--1--1/3--1--1--1--1--1--1--1--1--1/3--1---|
G||---0--0--0--0--0--0--0-0--0--2--2--2--2--2--2--2--2/4--2---|
D||---2--2--2--2--2--2--2/4--2--2--3--3--3--3--3--3--3/5--3---|
A||---3--3--3--3--3--3--3/5--3--0--3--3--3--3--3--3--3/5--3---|
E||---3--3--3--3--3--3--3/5--3--x--x--x--x--x--x--x--x-x--x---|

Chorus

      Am Am7             Bm  Am C                   D  C
E||---0--3--3--3--3--0--0-0--0--0--0--0--0--0--0--0-0--0---|
B||---1--1--1--1--1--1--1/3--1--1--1--1--1--1--1--1/3--1---|
G||---1--1--1--1--1--1--1/4--2--0--0--0--0--0--0--0----0---|
D||---2--2--2--2--2--2--2/4--2--2--2--2--2--2--2--2/4--2---|
A||---0--0--0--0--0--0--0-0--0--3--3--3--3--3--3--3/5--3---|
E||---x--x--x--x--x--x--x-x--x--3--3--3--3--3--3--3/5--3---|


C                          D
Don't make me read your mind

C     Am     F                   G    F
You should know me better than that


C                       D
It takes me too much time

C     Am     F                   G    F
You should know me better than that


C                          D
You're not that much like me

C     Am     F                   G    F
You should know me better than that


C                       D
We have different enemies

C     Am     F                   G    F
You should know me better than that

Am                          G   Am       C    D    C   
I should leave it alone but you're not right

Am                          G   Am       C    D    C   
I should leave it alone but you're not right

C  D  C  Am

C                             D
Can't you write it on the wall?

C     Am     F                   G    F
You should know me better than that

C                             D
There's no room to write it all

C     Am     F                   G    F
You should know me better than that

C                       D
Can you turn the TV down?

C     Am     F                   G    F
You should know me better than that

C                                  D
There's too much crying in the sound

C     Am     F                   G    F
I should know you better than that


Am                          G   Am       C    D    C   
I should leave it alone but you're not right

Am                          G   Am       C    D    C
I should leave it alone but you're not right

Am                                 F     C    D    C
I should live in salt for leaving you behind

F      C   D   C
Behind




C                           D
Think about something so much

C     Am     F                   G    F
You should know me better than that


C                         D
Start to slide out of touch

C     Am     F                   G    F
You should know me better than that


C                             D
Tell yourself it's all you know

C     Am     F                   G    F
You should know me better than that


C                          D
Learn to appreciate the void

C     Am     F                   G    F
You should know me better than that



Am                                 F     C    D    C
I should live in salt for leaving you behind

F      C   D   C
Behind

Am                                 F     C    D    C
I should live in salt for leaving you behind

F      C   D   C
Behind

Am                                 F     C    D    C
I should live in salt for leaving you behind

F      C   D   C
Behind


C D C Am  F G F 

Tap to rate this tab
 
# A B C D E F G H I J K L M N O P Q R S T U V W X Y Z