Song name
# A B C D E F G H I J K L M N O P Q R S T U V W X Y Z

The National - The Rains Of Castamere tab

The National- Rains of Castamere

Capo 5th fret if you want to play along, sounds good without one, too. Enjoy :)

   "And who are you", the proud lord said, "that I must bow so low?
E|--------------------------------------------|
B|-----1-----0-----1--3--0-----3--1--0-----0--|
G|-----2-----2-----2--------------------2-----|
D|--2-----2-----2-----------2-----------------|
A|-----0-----0-----0-----------0--------------|
E|-----------------------------------------3--|


  Only a cat of a different coat, that's all the truth i know."
E|--0--0--1--------0--1--------1--0-----------|
B|--1--------3-----1-----3-----3-----3--1--0--|
G|--0-----------2--0--------0--2--------------|
D|-----------------------------0--------------|
A|--3--------------3--------------------------|
E|--------------------------------------------|

  "In a coat of gold, or a coat of red, a lion still has claws
E|--------------------------------------------|
B|-----1-----0-----1--3--0-----3--1--0-----0--|
G|-----2-----2-----2--------------------2-----|
D|--2-----2-----2-----------2-----------------|
A|-----0-----0-----0-----------0--------------|
E|-----------------------------------------3--|

  and mine are long and sharp, my lord, as long and sharp as yours."
E|--0--0--1--------0--1--------1--0-----------|
B|--1--------3-----1-----3-----3-----3--1-----|
G|--0-----------2--0--------0--2-----------2--|
D|-----------------------------0--------------|
A|--3--------------3--------------------------|
E|-----------------------------------------0--|

  And so he spoke, and so he spoke, that Lord of Castamere,
E|-----------------------------------------------|
B|-----0--1-----1--1--0--------0--1-----1--1--0--|
G|-----------2-----------0-----------2-----------|
D|--2-----------------------2--------------------|
A|-----0--------0--------------0--------0--------|
E|-----------------------0-----------------------|

  but now the rains weep o'er his hall, with no one there to hear.
E|--------------0--0--------------------------|
B|-----0--1-----3-----3-----1--0-----0--1-----|
G|-----------2--2--------2--------1--------2--|
D|--2-----------0-----------------------------|
A|-----0--------------------0-----------0-----|
E|--------------------------------0-----------|

  Yes, now the rains weep o'er his hall, and not a soul to hear.
E|--------------0--0--------------------------|
B|-----0--1-----3-----3-----1--0-----0--1-----|
G|-----------2--2--------2--------1--------2--|
D|--2-----------0-----------------------------|
A|-----0--------------------0-----------0-----|
E|--------------------------------0-----------|
Tap to rate this tab
# A B C D E F G H I J K L M N O P Q R S T U V W X Y Z