Song name
# A B C D E F G H I J K L M N O P Q R S T U V W X Y Z

The National - The Rains Of Castamere tab

Verse:

And who are you, the proud lord said.....

E|------------------------------------------------------------------|
B|------------------------------------------------------------------|
G|-----3-----2-----3-5-2---5-3-2-0-2------7---5---7-8-5---8-7-5-3---|
D|--0-----0-----0--------0--------------0---0---0-------0---------5-|
A|------------------------------------------------------------------|
E|------------------------------------------------------------------|


Chorus:

And so he spoke, and so he spoke...

E|--------------------------|
B|--------------------------|
G|---2--3---3---2-3-2-------|
D|--------5-----------------|
A|--------------------------|
E|--------------------------|

That lord of Castamere...

E|--------------------------|
B|--------------------------|
G|---2--3---3--3/2----------|
D|--------5-----------------|
A|--------------------------|
E|--------------------------|

But now the rains weep o'er his hall..

E|-----------------------------------------|
B|-----------------------------------------|
G|---2--3-----7-7-5------------------------|
D|--------5---------7---7-8---10-7---3-5---|
A|-----------------------------------------|
E|-----------------------------------------|
Tap to rate this tab
# A B C D E F G H I J K L M N O P Q R S T U V W X Y Z