Song name
# A B C D E F G H I J K L M N O P Q R S T U V W X Y Z

The National - Fireproof tab

-------------------------------------------------------------------------------
                 FIREPROOF - The National
-------------------------------------------------------------------------------
Tabbed by: cdosborn
E-mail: iamnotajudas[at]gmail.com

Tuning: 1st string down a half step (makes fingerings significantly easier)

The words are relatively accurately placed. Note that the 5 note in ought to be played 
quickly without much emphasis (this pattern is repeated). Enjoy!

                              Verses:
eb|----------------------------------5-------------------------------------5--|
B |--------------7---------------7---------------------6---------------6------|
G |----------8-------8-------8---------------------8-------8-------8----------|
D |------8---------------8---------------------6---------------6--------------|
A |--6------------------------------------------------------------------------|
E |----------------------------------------7----------------------------------|
                        You keep a lot of secrets
eb|--------------5-------------------------------------5-------------------5--|
B |----------7-------7-----------------------------4-------4-----------4------|
G |------8-------------------------------------4-------------------4----------|
D |--8-------------------8--------9--------6-------------------6--------------|
A |---------------------------------------------------------------------------|
E |---------------------------------------------------------------------------|
                         and  I  keep  none
eb|----------------------------------5-------------------------------------5--|
B |--------------7---------------7---------------------6---------------6------|
G |----------8-------8-------8---------------------8-------8-------8----------|
D |------8---------------8---------------------6---------------6--------------|
A |--6------------------------------------------------------------------------|
E |----------------------------------------7----------------------------------|
                        Wish I could go back
eb|--------------5-------------------------------------5-------------------5--|
B |----------7-------7-----------------------------4-------4-----------4------|
G |------8-------------------------------------4-------------------4----------|
D |--8-------------------8--------9--------6-------------------6--------------|
A |---------------------------------------------------------------------------|
E |---------------------------------------------------------------------------|
                         and   keep  some                    you're fire...


                              Chorus:
eb|----------------------------------5-------------------------------------5--|
B |--------------7---------------7---------------------6---------------6------|
G |----------8-------8-------8---------------------8-------8-------8----------|
D |------8---------------8---------------------6---------------6--------------|
A |--6------------------------------------------------------------------------|
E |----------------------------------------7----------------------------------|
    proof                                                    nothing
eb|--------------5-------------------------------------5-------------------5--|
B |----------7-------7-----------------------------4-------4-----------4------|
G |------8-------------------------------------4-------------------4----------|
D |--8-------------------8--------9--------6-------------------6--------------|
A |---------------------------------------------------------------------------|
E |---------------------------------------------------------------------------|
    breaks                            your   heart            you're fire...
eb|----------------------------------5-------------------------------------5--|
B |--------------7---------------7---------------------6---------------6------|
G |----------8-------8-------8---------------------8-------8-------8----------|
D |------8---------------8---------------------6---------------6--------------|
A |--6------------------------------------------------------------------------|
E |----------------------------------------7----------------------------------|
    proof                                                    it's
eb|--------------5-------------------------------------5-------------------5--|
B |----------7-------7-----------------------------4-------4-----------4------|
G |------8-------------------------------------4-------------------4----------|
D |--8-------------------8--------9--------6-------------------6--------------|
A |---------------------------------------------------------------------------|
E |---------------------------------------------------------------------------|
    just   the  way                       you are

Enjoy :7,

************************************

| /   slide up
|lide down
| h   hammer-on
| p   pull-off
| ~   vibrato
| +   harmonic
| x   Mute note
| b   Bend
| pb  Pre-bend
| br  Bend release
| pbr Pre-bend release
| brb Bend release bend

************************************
Tap to rate this tab
# A B C D E F G H I J K L M N O P Q R S T U V W X Y Z