Song name
# A B C D E F G H I J K L M N O P Q R S T U V W X Y Z

The National - Fireproof tab

Tabbed By: yulizavala22
The National
Trouble Will Find Me
Fireproof 

Capo 6

The notes in the parenthesis are optional; 
they add the effect that is in the song 
	  Am      				F
e|------------------------------------------------------|
B|-----------1------------1------------1------------1---|
G|--------2------------2------------2------------2------|
D|-----2----(2)-----2----(2)-----3----(3)-----3----(3)--|
A|--0------------0------------3------------3------------|
E|------------------------------------------------------\
							 \
							  x2
	C					   Dm	 /
e|------------------------------------------------------/
B|-----------1--------------------------3----------3----|
G|--------0------------0-------------2----------2-------|
D|-----2----(2)-----2-----3-0-----0----------0----------|
A|--3------------3-------------0----------0-------------|
E|------------------------------------------------------|

There is a little variation in the 
end of the second part of the song 
	  Am      				F
e|------------------------------------------------------|
B|-----------1------------1------------1------------1---|
G|--------2------------2------------2------------2------|
D|-----2----(2)-----2----(2)-----3----(3)-----3----(3)--|
A|--0------------0------------3------------3------------|
E|------------------------------------------------------\
							 \
							  x2
	C					   Dm	 /
e|---------------------------------------1----------1---/
B|-----------1------------------------3----------3------|
G|--------0------------0-----------2----------2---------|
D|-----2----(2)-----2-----3-0---0----------0------------|
A|--3------------3--------------------------------------|
E|------------------------------------------------------|

I know this isn’t 100% correct but it is pretty close 
to the song, I had to learn this song by ear because there 
wasn’t any good tab on UG but anyways please rate and enjoy :]
Tap to rate this tab
# A B C D E F G H I J K L M N O P Q R S T U V W X Y Z