Song name
# A B C D E F G H I J K L M N O P Q R S T U V W X Y Z

The National - Hard To Find tab

Verse
e|--1----4----6----4----6----4----6-----------------|
B|--1----4----6----4----6----4----6-----------------|
G|--1----5----6----5----6----5----8-----------------|
D|--3----6----6----6----6----6----6-----------6--8--|
A|--3----6----4----6----4----6----6----6/8----------|
E|--1----4----4----4----4----4----6-----------------|


Chorus
e|--------------------------------------------|
B|--------------------------------------------|
G|--13-(x8)----15-(x4)----17-(x2)----20-(x2)--|
D|--------------------------------------------|
A|--------------------------------------------|
E|--------------------------------------------|


Outro
e|--------------------------------------------|
B|--------------------------------------------|
G|--13-(x8)----15-(x4)----17-(x2)----20-(x2)--|
D|--------------------------------------------|
A|--------------------------------------------|
E|--------------------------------------------|
Tap to rate this tab
 
# A B C D E F G H I J K L M N O P Q R S T U V W X Y Z