Song name
# A B C D E F G H I J K L M N O P Q R S T U V W X Y Z

The National - All The Wine tab

The National-All The Wine
The National website - www.americanmary.com

Guitar 1
e--15--15--15--15--15--15--12--12---------------|
b----13--13--13--13--13--13--13--13-------------|
g-----------------------------------------------| repeat over and over
d-----------------------------------------------|
a-----------------------------------------------|
e-----------------------------------------------|

Guitar 2
e-10-10-10-10-10-10-10-10-13-13--13-12-13-12-8--|
b-----------------------------------------------|
g-----------------------------------------------|
d-----------------------------------------------|
a-----------------------------------------------|
e-----------------------------------------------|

e-8-8-8-13-13--13-12-10-10-10-10-10-10-10-10-----|
b------------------------------------------------|
g------------------------------------------------|  repeat over
d------------------------------------------------|
a------------------------------------------------|
e------------------------------------------------|
Thats the basics for the begining and the picking, just mess around with it to find the 
rhythm and notes

Chorus:
e--------------------------|
b--------------------------|
g-5-5-5--7-7-7--10---------|
d-5-5-5--7-7-7--10---7--10-|
a-3-3-3--5-5-5--8----7--10-|
e--------------------5--8--|
Tap to rate this tab
# A B C D E F G H I J K L M N O P Q R S T U V W X Y Z