Song name
# A B C D E F G H I J K L M N O P Q R S T U V W X Y Z

The National - Secret Meeting tab

“Secret Meeting”
by The National
from the album ‘Alligator’
        
Intro (strum through)
     Bm          A
|-----7----------5----------|
|-----7-(10)-----5--7-------|
|-----7----------6----------|
|-----9----------7----------|
|-----9----------7----------|
|---7----------5------------|


Verse, they basically just play simplified chords
     Bm          A
|-----7----------5------------|
|-------------------7---------|
|-----------------------------|
|-----------------------------|
|-----------------------------|
|-----------------------------|

   Bm               A              Bm
I think this place is full of spies
             A
I think they're onto me
N.C.
Didn't anybody, didn't anybody tell you
Didn't anybody tell you how to gracefully disappear in a room

Chorus:
    D10    A        D12   D/A12
|----------------------------------|
|----10----10--------15-----15-----|
|----11-----9--------14-----14-----|
|----12-----x--------12-----12-----|
|----x------0---------------12-----|
|----10----------------------------|

D10    A      D12                  D/A12                   
              It went the dull and wicked ordinary way
D10    A      D12                  D/A12                          
              It went the dull and wicked ordinary way
              D12            D/A12                    
              And now I'm sorry I missed you
                 D10                          A                   
              I had a secret meeting in the basement of my brain


Email questions:
Fixxxer411@yahoo.com
Tap to rate this tab
# A B C D E F G H I J K L M N O P Q R S T U V W X Y Z