Song name
# A B C D E F G H I J K L M N O P Q R S T U V W X Y Z

The National - Slipping Husband tab

The National
Song - Slipping Husband
Album - Sad Songs for Dirty Lovers
The National website - www.americanmary.com

Melody played throughout song 

guitar 1
e--12----12----12----12----12----12----12----12---|
b-----13----13----13----13----13----13----13----15|
g-------------------------------------------------|
d-------------------------------------------------|
a-------------------------------------------------|
e-------------------------------------------------|

guitar 2
e-------------------------------------------------|
b--10----10---------------------------------------|
g--------------12----12----10----10---------------|
d--------------------------------------14-15-14-15|
a-------------------------------------------------|
e-------------------------------------------------|

Overlap sounds amazing. I can't get enough of this band. 
Tap to rate this tab
# A B C D E F G H I J K L M N O P Q R S T U V W X Y Z