Song name
# A B C D E F G H I J K L M N O P Q R S T U V W X Y Z

The Nazis From Mars - Night Of The Phantom tab

Main Riff(Verse and Chorus)
Rhytm is just DownDownUp on every chord.
Verse 1 (Clear or with little distortion)
e---------------------------------|
B---------------------------------|
G---------------------------  x10-|
D-6-6-6-9-9-9-11-11-11-9-9-9------|
A-6-6-6-9-9-9-11-11-11-9-9-9------|
E-4-4-4/7-7-7/9--9--9-/7-7-7------|

Chorus 1 (A lot of fuzz)

e----------------------------|
B----------------------------|
G----------------------------| x 3 then
D-6-6-6-9-9-9-11-11-11-9-9-9-|
A-6-6-6-9-9-9-11-11-11-9-9-9-|
E-4-4-4/7-7-7/9--9--9-/7-7-7-|

e----------------------|
B----------------------|
G----------------------|
D-6-6-6-9-9-9-11-11-11-|
A-6-6-6-9-9-9-11-11-11-|
E-4-4-4/7-7-7/9--9--9--|


Verse 2
e------------------------------|
B------------------------------|
G------------------------------|  x8
D-6-6-6-9-9-9-11-11-11-9-9-9---|
A-6-6-6-9-9-9-11-11-11-9-9-9---|
E-4-4-4/7-7-7/9--9--9-/7-7-7---|

Chorus 2
e------------------------------|
B------------------------------|
G------------------------------|  x3
D-6-6-6-9-9-9-11-11-11-9-9-9---|
A-6-6-6-9-9-9-11-11-11-9-9-9---|
E-4-4-4/7-7-7/9--9--9-/7-7-7---|
 then

e----------------------|
B----------------------|
G----------------------|
D-6-6-6-9-9-9-11-11-11-|
A-6-6-6-9-9-9-11-11-11-|
E-4-4-4/7-7-7/9--9--9--|

and after a little pause

e------------------------------|
B------------------------------|
G------------------------------|  x3
D-6-6-6-9-9-9-11-11-11-9-9-9---|
A-6-6-6-9-9-9-11-11-11-9-9-9---|
E-4-4-4/7-7-7/9--9--9-/7-7-7---|

Verse 3
e---------------------------------|
B---------------------------------|
G---------------------------  x 8-|
D-6-6-6-9-9-9-11-11-11-9-9-9------|
A-6-6-6-9-9-9-11-11-11-9-9-9------|
E-4-4-4/7-7-7/9--9--9-/7-7-7------|
 Chorus 3
e----------------------------|
B----------------------------|
G----------------------------|  x 10
D-6-6-6-9-9-9-11-11-11-9-9-9-|
A-6-6-6-9-9-9-11-11-11-9-9-9-|
E-4-4-4/7-7-7/9--9--9-/7-7-7-|



http://nazisfrommars.com/nfm.htm
Tap to rate this tab
# A B C D E F G H I J K L M N O P Q R S T U V W X Y Z