Song name
# A B C D E F G H I J K L M N O P Q R S T U V W X Y Z

The Neighbourhood - Sweater Weather tab

[Verse]

d |------------------------------------------17-----------|
A |--------------13------------------------------17-------|
F |----------14------14----------17------------------17---|  X4
C |----3/15------------------14------14-------------------|
G |----------------------12--------------12---------------|
D |-1-----------------------------------------------------|
[ Tab from: http://www.guitaretab.com/t/the-neighbourhood/356258.html ]
[Bridge/Chorus]
*Eight note strums for bridge.. "She knows what I think about.."
*Single strums for chorus.. "Cuz it's too coooold.."
 
    D#   Cm   Gm   B   *F* Play instead of B after Chorus x2
d |-1----5----5----3----3---------------------------------|
A |-1----6----5----5----3---------------------------------|
F |-2----7----5----5----4---------------------------------|  X4
C |-3----7----7----5----5---------------------------------|
G |-3----5----7----3----5---------------------------------|
D |-1----5----5----3----3---------------------------------|

[Verse2]
[Bridge]
[Chorus] X2
[Pre-Outro] *Listen to song for strumming pattern* "Wooah Woaah.."

d |-5----3----3---------------------------------------|
A |-6----5----3---------------------------------------|
F |-7----5----4---------------------------------------|  X6
C |-7----5----5---------------------------------------|
G |-5----3----5---------------------------------------|
D |-5----3----3---------------------------------------|

[Chorus]

End on Chorus.
Tap to rate this tab
# A B C D E F G H I J K L M N O P Q R S T U V W X Y Z