Song name
# A B C D E F G H I J K L M N O P Q R S T U V W X Y Z

The New Cities - Dead End Countdown tab

song:Dead End, Countdown
band:The New Cities

tabbed by : jumojer
for any comments or demand: jeromelcg@hotmail.com

its the intro and the beat in the chorus

standard tunning( EADGBe)



intro
e|-------------------------------------------------|
B|-------------------------------------------------|
G|-------------------------------------------------|
D|------------drum intro---------------------------|
A|-------------------------------------------------|
E|-------------------------------------------------|

e|-----------------------------------------------------------------|
B|-----------------------------------------------------------------|
G|-----------------------------------------------------------------|
D|-----------------------------------------------------------------|
A|---2-2--4--5(let ring)---0-0--4--5(let ring)--2-2--4--5(let ring)|
E|-----------------------------------------------------------------|


e|----------------------------------------------------------------|
B|----------------------------------------------------------------|
G|----------------------------------------------------------------|
D|--4-4--2-----------------------------4-2-4-2--2-----------------|
A|----------5------2-2--4--5---2--2----------------5-4------------|
E|----------------------------------------------------------------|

e|-----------------------------------------------------------------|
B|-----------------------------------------------------------------|
G|-----------------------------------------------------------------|
D|-----------------------------------------4-2-4-2--2--------------|
A|----------4-5---------2-2--4--5---2--2-----------------5-4-------|
E|--5--5-7---------------------------------------------------------|

e|-----------------------------------------------------------------|
B|-----------------------------------------------------------------|
G|-----------------------------------------------------------------|
D|-----------------------------------------------------------------|
A|----------4-5--2(let ring)---------------------------------------|
E|--5--5-7---------------------------------------------------------|

verse (at the end of the verse before there's no guitar)

e|--7-7-----10-10------------------------------------------------------|
B|--7-7-----10-10------------------------------------------------------|
G|--x-x-----10-10-----(repeat til the chorus)--------------------------|
D|--9-9-----12-12------------------------------------------------------|
A|--9-9-----12-12------------------------------------------------------|
E|--7-7-----10-10------------------------------------------------------|

chorus(x2)


e|-----------------------------------------------------------------|
B|-----------------------------------------------------------------|
G|-----------------------------------------------------------------|
D|----------------------4-2-4-2--2---------------------------------|
A|---2-2--4--5---2--2-----------------5-4------------4-5-----------|
E|-------------------------------------------5--5-7----------------|


e|-----------------------------------------------------------------|
B|-----------------------------------------------------------------|
G|-----------------------------------------------------------------|
D|-----------------------------------------------------------------|
A|---2-2--4--5(let ring)---0-0--4--5(let ring)---------------------|
E|-----------------------------------------------------------------|


verse (at the end of the verse before there's no guitar)

e|--7-7-----10-10------------------------------------------------------|
B|--7-7-----10-10------------------------------------------------------|
G|--x-x-----10-10-----(repeat til the chorus)--------------------------|
D|--9-9-----12-12------------------------------------------------------|
A|--9-9-----12-12------------------------------------------------------|
E|--7-7-----10-10------------------------------------------------------|

chorus(x2)


e|-----------------------------------------------------------------|
B|-----------------------------------------------------------------|
G|-----------------------------------------------------------------|
D|----------------------4-2-4-2--2---------------------------------|
A|---2-2--4--5---2--2-----------------5-4------------4-5-----------|
E|-------------------------------------------5--5-7----------------|

the dead end countdown,
the dead end countdown
the dead end countdown


chorus(x4)


e|-----------------------------------------------------------------|
B|-----------------------------------------------------------------|
G|-----------------------------------------------------------------|
D|----------------------4-2-4-2--2---------------------------------|
A|---2-2--4--5---2--2-----------------5-4------------4-5-----------|
E|-------------------------------------------5--5-7----------------|


the dead end countdown,
the dead end countdown
the dead end countdown
the dead end countdown

finish with

e|--------------------|
B|--------------------|
G|---4-4-4------------|
D|---4-4-4------------|
A|---2-2-2------------|
E|--------------------|

thanks dont be shy write a lot of comment 

official web site : http://www.thenewcities.com/
Tap to rate this tab
# A B C D E F G H I J K L M N O P Q R S T U V W X Y Z