Guitaretab - guitar tabs
Song name
# A B C D E F G H I J K L M N O P Q R S T U V W X Y Z

The New Cities - Leaders Of The Misled tab

The New Cities - Leaders Of The Misled
	Tabbed by : Mat DeWael
	
	If there are any mistakes feel free to take this tab and fix er up for me...
This is the basis of the song tho lol.... I met the singer at one of the local shows 
here and he taught me the basics of it cause my band is covering this song but i was a little 
drunk at the time so memory was not so good with it in the morning lol But enjoy 
what i came up with..





  Intro      (chorus riff)
											         (x2)
e|-------|--------------------------------------------------------------------------------------|
B|-------|--------------------------------------------------------------------------------------|
G|-------|-------------------9-9-9-9-9-9-9-9-------------------11-11-11-11-11-11-11-11----------|
D|--6-6--|--6-6-6-6-6-6-6-6--9-9-9-9-9-9-9-9--9-9-9-9-9-9-9-9--11-11-11-11-11-11-11-11----------|
A|--6-6--|--6-6-6-6-6-6-6-6--7-7-7-7-7-7-7-7--9-9-9-9-9-9-9-9--9--9--9--9--9--9--9--9-----------|
E|--4-4--|--4-4-4-4-4-4-4-4-------------------7-7-7-7-7-7-7-7-----------------------------------|
    . .  Bop, bop, bop, wha ahh ahh oh, Bop, bop, bop, wha ahh ahh oh, Bop, bop, bop, wha ahh ahh oh
          Bop, bop, bop, wha ahh ahh oh

Verse #1

e|----------------------------------------------------------------------------------------------|
B|----------------------------------------------------------------------------------------------|
G|----------------------------------------------------------------------------------------------|
D|------6-\------------------------------------------------------9-9------9--9------------------|
A|------6-\------------------------------------------------------9-9------9--9------------------|
E|------4-\------------------------------------------------------7-7------7--7------------------|
       I cannot forget those days (days) Heavy like my feet were stuck in concrete
    
e|----------------------------------------------------------------------------------------------|
B|----------------------------------------------------------------------------------------------|
G|----------------------------------------------------------------------------------------------|
D|-----6-\---------------------------------------------------------------9---9------------------|
A|-----6-\---------------------------------------------------------------9---9------------------|
E|-----4-\---------------------------------------------------------------7---7------------------|
       Locked into a life-delay (lay) Where everything Iíd see was blind ambition


e|----------------------------------------------------------------------------------------------|
B|----------------------------------------------------------------------------------------------|
G|----------------------9-9-9-9-9-9-9-9-------------------11-11-11-11-11-11-11-11---------------|
D|-----6-6-6-6-6-6-6-6--9-9-9-9-9-9-9-9--9-9-9-9-9-9-9-9--11-11-11-11-11-11-11-11---------------|
A|-----6-6-6-6-6-6-6-6--7-7-7-7-7-7-7-7--9-9-9-9-9-9-9-9--9--9--9--9--9--9--9--9----------------|
E|-----4-4-4-4-4-4-4-4-------------------7-7-7-7-7-7-7-7----------------------------------------|
      |...........................................................................|
        Just when this story seems to end   Our  world   expands and then extends


e|----------------------------------------------------------------------------------------------|
B|----------------------------------------------------------------------------------------------|
G|----------11-/-12-\-11--------11-/-12-\-11--16-16-16-16-16-16-16-16--11-11-11-11-11-11-11-11--|
D|---6-6----x--/-x--\-x---9-9---x--/-x--\-x---x--x--x--x--x--x--x--x---x--x--x--x--x--x--x--x---|
A|---6-6----9--/-10-\-9---9-9---9--/-10-\-9---14-14-14-14-14-14-14-14--9--9--9--9--9--9--9--9---|
E|---4-4------------------7-7-------------------------------------------------------------------|

      Even if my words are faint	      You will always hear me say


Chorus:
												  (x2)
e|----------------------------------------------------------------------------------------------| 
B|----------------------------------------------------------------------------------------------|
G|-------------------9-9-9-9-9-9-9-9-------------------11-11-11-11-11-11-11-11------------------|
D|--6-6-6-6-6-6-6-6--9-9-9-9-9-9-9-9--9-9-9-9-9-9-9-9--11-11-11-11-11-11-11-11------------------|
A|--6-6-6-6-6-6-6-6--7-7-7-7-7-7-7-7--9-9-9-9-9-9-9-9--9--9--9--9--9--9--9--9-------------------|
E|--4-4-4-4-4-4-4-4-------------------7-7-7-7-7-7-7-7-------------------------------------------|

 (1) Tell me more,tell me more Why keep moving ahead?  (When we both know, Itís no way to go) 
 (2) Tell me have we become  The leaders of the misled in the end?

e|----------------------------------------------------------------------------------------------| 
B|----------------------------------------------------------------------------------------------|
G|----------------------------------------------------------------------------------------------|
D|--6-6-6-6-6-6-6-6--2-2-2-2-2-2-2-2--9-9-9-9-9-9-9-9--4-4-4-4-4-4-4-4--------------------------|
A|--6-6-6-6-6-6-6-6--2-2-2-2-2-2-2-2--9-9-9-9-9-9-9-9--4-4-4-4-4-4-4-4--------------------------|
E|--4-4-4-4-4-4-4-4--0-0-0-0-0-0-0-0--7-7-7-7-7-7-7-7--2-2-2-2-2-2-2-2--------------------------|

    Bop, bop, bop, wha ahh ahh oh, Bop, bop, bop, wha ahh ahh oh
    Bop, bop, bop, wha ahh ahh ohhhhhhhh

Verse #2

e|----------------------------------------------------------------------------------------------|
B|----------------------------------------------------------------------------------------------|
G|-------------------------------9-9--------------------------9-9-------------------------------|
D|------6-\----------------------9-9--------------------------9-9--9-9--------------------------|
A|------6-\----------------------7-7--------------------------7-7--9-9--------------------------|
E|------4-\--------------------------------------------------------7-7--------------------------|

       
       Let's hold on and take a breath  Take a step away and break transmission

e|----------------------------------------------------------------------------------------------|
B|----------------------------------------------------------------------------------------------|
G|-------------------------------9-9-------------------------------9-9--------------------------|
D|-----6-6-\---------------------9-9-------------------------------9-9--9--9--------------------|
A|-----6-6-\---------------------7-7-------------------------------7-7--9--9--------------------|
E|-----4-4-\------------------------------------------------------------7--7--------------------|

      We've walked into another mess  Cause I can never turn down propositions

[ Tab from: http://www.guitaretab.com/t/the-new-cities/188379.html ]
e|----------------------------------------------------------------------------------------------|
B|----------------------------------------------------------------------------------------------|
G|----------------------9-9-9-9-9-9-9-9-------------------11-11-11-11-11-11-11-11---------------|
D|-----6-6-6-6-6-6-6-6--9-9-9-9-9-9-9-9--9-9-9-9-9-9-9-9--11-11-11-11-11-11-11-11---------------|
A|-----6-6-6-6-6-6-6-6--7-7-7-7-7-7-7-7--9-9-9-9-9-9-9-9--9--9--9--9--9--9--9--9----------------|
E|-----4-4-4-4-4-4-4-4-------------------7-7-7-7-7-7-7-7----------------------------------------|
      |...........................................................................|
        Just when our story seems to end  You've gone and done it all again

e|----------------------------------------------------------------------------------------------|
B|----------------------------------------------------------------------------------------------|
G|----------11-/-12-\-11--------11-/-12-\-11--16-16-16-16-16-16-16-16--11-11-11-11-11-11-11-11--|
D|---6-6----x--/-x--\-x---9-9---x--/-x--\-x---x--x--x--x--x--x--x--x---x--x--x--x--x--x--x--x---|
A|---6-6----9--/-10-\-9---9-9---9--/-10-\-9---14-14-14-14-14-14-14-14--9--9--9--9--9--9--9--9---|
E|---4-4------------------7-7-------------------------------------------------------------------|

     And even if my words are faint           You will always hear me say


(NO GUITAR)
    
Is this a chain reaction? Let's not fight it...


Chorus:
												  (x2)
e|----------------------------------------------------------------------------------------------| 
B|----------------------------------------------------------------------------------------------|
G|-------------------9-9-9-9-9-9-9-9-------------------11-11-11-11-11-11-11-11------------------|
D|--6-6-6-6-6-6-6-6--9-9-9-9-9-9-9-9--9-9-9-9-9-9-9-9--11-11-11-11-11-11-11-11------------------|
A|--6-6-6-6-6-6-6-6--7-7-7-7-7-7-7-7--9-9-9-9-9-9-9-9--9--9--9--9--9--9--9--9-------------------|
E|--4-4-4-4-4-4-4-4-------------------7-7-7-7-7-7-7-7-------------------------------------------|

 (1) Tell me more,tell me more Why keep moving ahead?  (When we both know, Itís no way to go) 
 (2) Tell me have we become  The leaders of the misled in the end?

Bridge:

e|----------------------------------------------------------------------------------------------|
B|----------------------------------------------------------------------------------------------|
G|----------------------------------------------------------------------------------------------|
D|---2-2-2-2--9-9-9-9--4-4-4-4--6-6-6-6--4-4-4-4----2-2-2-2--9-9-9-9--4-4-4-4--6-6-6-6--4-4-4-4-|
A|---2-2-2-2--9-9-9-9--4-4-4-4--6-6-6-6--4-4-4-4----2-2-2-2--9-9-9-9--4-4-4-4--6-6-6-6--4-4-4-4-|
E|---0-0-0-0--7-7-7-7--2-2-2-2--4-4-4-4--2-2-2-2----0-0-0-0--7-7-7-7--2-2-2-2--4-4-4-4--2-2-2-2-|

    Is this a chain reaction? Let's not fight it... This game is taking over, can't control it

e|----------------------------------------------------------------------------------------------|
B|----------------------------------------------------------------------------------------------|
G|------------9-9-9-9--11-11-11-11--13-13--11-11------------------------------------------------|
D|---6-6-6-6--9-9-9-9--11-11-11-11--13-13--11-11-------------------9 ---------------------------|
A|---6-6-6-6--7-7-7-7--9--9--9--9---11-11--9--9--------------------9 let ring-------------------|
E|---4-4-4-4-------------------------------------------------------7----------------------------|

     Let it go, we both know  Intentions are never quite what they seem

e|----------------------------------------------------------------------------------------------|
B|----------------------------------------------------------------------------------------------|
G|----------------------------------------------------------------------------------------------|
D|-----6----------------------------------------------------------------------------------------|
A|-----6 let ring-------------------------------------------------------------------------------|
E|-----4----------------------------------------------------------------------------------------|

      What can we lose? What can we gain?   Lying to ourselves makes it easy to explain

e|----------------------------------------------------------------------------------------------|
B|----------------------------------------------------------------------------------------------|
G|----------------------9-9-\-------------------------------------------------------------------|
D|-----6-6-\------------9-9-\------------------9-9--9-9-----------------------------------------|
A|-----6-6-\------------7-7-\------------------9-9--9-9-----------------------------------------|
E|-----4-4-\-----------------------------------7-7--7-7-----------------------------------------|

       What's there to prove? It's all the same

e|----------------------------------------------------------------------------------------------| 
B|----------------------------------------------------------------------------------------------|
G|-------------------9-9-9-9-9-9-9-9-------------------11---------------------------------------|
D|--6-6-6-6-6-6-6-6--9-9-9-9-9-9-9-9--9-9-9-9-9-9-9-9--11---------------------------------------|
A|--6-6-6-6-6-6-6-6--7-7-7-7-7-7-7-7--9-9-9-9-9-9-9-9--9----------------------------------------|
E|--4-4-4-4-4-4-4-4-------------------7-7-7-7-7-7-7-7-------------------------------------------|
   |.................................................|
   Living in a past that you know will never last  You will always hear me say!!


Chorus: (outro)
												  (x2)
e|----------------------------------------------------------------------------------------------| 
B|----------------------------------------------------------------------------------------------|
G|-------------------9-9-9-9-9-9-9-9-------------------11-11-11-11-11-11-11-11------------------|
D|--6-6-6-6-6-6-6-6--9-9-9-9-9-9-9-9--9-9-9-9-9-9-9-9--11-11-11-11-11-11-11-11------------------|
A|--6-6-6-6-6-6-6-6--7-7-7-7-7-7-7-7--9-9-9-9-9-9-9-9--9--9--9--9--9--9--9--9-------------------|
E|--4-4-4-4-4-4-4-4-------------------7-7-7-7-7-7-7-7-------------------------------------------|

 (1) Tell me more,tell me more Why keep moving ahead?  (When we both know, Itís no way to go) 
 (2) Tell me have we become  The leaders of the misled in the end?

e|----------------------------------------------------------------------------------------------| 
B|----------------------------------------------------------------------------------------------|
G|----------------------------------------------------------------------------------------------|
D|--6-6-6-6-6-6-6-6--2-2-2-2-2-2-2-2--9-9-9-9-9-9-9-9--4-4-4-4-4-4-4-4--------------------------|
A|--6-6-6-6-6-6-6-6--2-2-2-2-2-2-2-2--9-9-9-9-9-9-9-9--4-4-4-4-4-4-4-4--------------------------|
E|--4-4-4-4-4-4-4-4--0-0-0-0-0-0-0-0--7-7-7-7-7-7-7-7--2-2-2-2-2-2-2-2--------------------------|

    Bop, bop, bop, wha ahh ahh oh, Bop, bop, bop, wha ahh ahh oh, Bop, bop, bop, wha ahh ahh oh
    Bop, bop, bop, wha ohh  Wha ohh 



e|-------------------|
B|-------------------|
G|-------------------|
D|-----6-------------|
A|-----6 let ring----|
E|-----4-------------|

       Ohhhhhhhhhhh....... END!!!
Related for Leaders Of The Misled tab