Song name
# A B C D E F G H I J K L M N O P Q R S T U V W X Y Z

The New Cities - The Hype chords

Highlighted       Show chord diagrams
Good song by The New Cities. Put a capo on 3 and play these 4 chords:

Tuning: Standard

  Am    F     C     G
e|-0----1-----0-----3-------|
B|-1----1-----1-----3-------|
G|-2----2-----0-----0-------|
D|-2----3-----2-----0-------|
A|-0----3-----3-----2-------|
E--0----1-----x-----3-------|

Or:

  Am    F     C     G
e|--------------------------|
B|--------------------------|
G|------------5-------------|
D|-7----3-----5-----5-------|
A|-7----3-----3-----5-------|
E--5----1-----------3-------|


I cant find lyrics to this song, but it basically just repeats throughout the whole 
song, for example:

BRIDGE:

Am      F      C   G
This is all so wrong
Am      F         C      G
Make it right and sing along
   Am        F       C  G
So sing me a song I know
Am         F         C      G
Sing me a, sing me a song I know (and it goes)

CHORUS

Am       F        C        G
Na na na na na na na na na na.. etc
Tap to rate this tab
# A B C D E F G H I J K L M N O P Q R S T U V W X Y Z