Song name
# A B C D E F G H I J K L M N O P Q R S T U V W X Y Z

The New Electric Sound - Dream Interlude tab

GUITAR ONE

(repeat twice)
--------12--------------12----------------|
----13-------13----12--------12-----------|
-12---12--12----12---12---12--------------|
------------------------------------------|
------------------------------------------|
------------------------------------------|

--------12--------------12----------------|
----13-------13----12--------12-----------|
-12---12--12----12---12---12--------------|
------------------------------------------|
------------------------------------------|
------------------------------------------|

GUITAR TWO
----------------------------------------------------------|
--------8--------------8------------8-------------8-------|
----9--------9----7--------7----5-------5----7-------7----|
-10--10--10----9----9---9----7---7---7----9---9---9-------|
----------------------------------------------------------|
----------------------------------------------------------|

------------------------------------------------------------------|
--------10-------------10--------------10---------------10--------|
----10------10----10--------10----10--------10----10--------10----|
-12--12--12----10---10---10----12---12---12----10---10---10-------|
------------------------------------------------------------------|
------------------------------------------------------------------|


---------------------------------------------------------|
-------3-----------3--------------3--------------3-------|
---4------4----4--------4----4--------4----4----------4--|
-5---5--5---5----5---5----5----5---5----5-----5----5-----|
---------------------------------------------------------|
---------------------------------------------------------|

And then...

C  Em  F  Em
C  Em  F  Em
Dm Em F Em
G G G G
Tap to rate this tab
# A B C D E F G H I J K L M N O P Q R S T U V W X Y Z