Song name
# A B C D E F G H I J K L M N O P Q R S T U V W X Y Z

The New Mastersounds - One Note Brown tab

-------------------------------------------------------------------------------
                             One Note Brown - New Mastersounds
-------------------------------------------------------------------------------
Tabbed by: Jeff

www.newmastersounds.com/‎

Tuning: standard, but you'd have to tune up/down to match their recordings (done on 
tape). This particular one One Note Brown (original version) is ~ A=432 hz or 32 cents flat


main riff
e|---------------------------------------------------9----7-----------------------|
B|---------------------------------------------------10---8^----------------------|
G|--9-9-9-7----9--7---6-----------9-9-9-7---9--7----9----7------------------------|
D|----------9---------7-----6-(6)----------9--------------------------------------|
A|-----------------------x--7-----------------------------------------------------|
E|--------------------------------------------------------------------------------|

*sometimes he frets the B string on the 9th and 7th frets along with the G string

e|--/3---5------------/5---7---------------------------------------------------|
B|--/3---3---3/6--5---/5---5----5/8---7----------------------------------------|
G|--/4---4---4/7--5---/6---6----6/9---7----------------------------------------|
D|-----------------------------------------------------------------------------|
A|--/5---5------------/7---7---------------------------------------------------|
E|--/3---3------------/5---5---------------------------------------------------|

then


     E9
e|---7-------------9-----------------------------------------------------------------|
B|---7----------------7--------------------------------------------------------------|
G|---7--x3----8h9--------------------------------------------------------------------|
D|---6-------------------------------------------------------------------------------|
A|---7-------------------------------------------------------------------------------|
E|-----------------------------------------------------------------------------------|


************************************

| /   slide up
| \   slide down
| h   hammer-on
| p   pull-off
| ~   vibrato
| +   harmonic
| x   Mute note
| b   Bend
| pb  Pre-bend
| br  Bend release
| pbr Pre-bend release
| brb Bend release bend

************************************
Tap to rate this tab
 
# A B C D E F G H I J K L M N O P Q R S T U V W X Y Z