Song name
# A B C D E F G H I J K L M N O P Q R S T U V W X Y Z

The New Regime - All These Changes tab

-------------------------------------------------------------------------------
			     ALL THESE CHANGES - The New Regime
-------------------------------------------------------------------------------
Tabbed by: Gematria
Email: dying.in.the.theatre.of.robots@hotmail.com

www.thenewregimemusic.com

Tuning: Half Step Down

D#|-----------------------------------|
A#|1-1-1-11-1-1-1-11------------------|
F#|0-0-0-00-2-2-2-22-1-1-1-1-1-1-1-11-|
C#|2-2-2-22-2-2-2-22-2-2-2-2-2-2-2-22-|
G#|3-3-3-33-0-0-0-00-2-2-2-2-2-2-2-22-|
D#|x-x-x-xx-x-x-x-xx-0-0-0-0-0-0-0-00-|

You Play that 2 times for the intro and 4 the verse.

That's All I have at the moment But I will put up the rest when i figure it out.
Tap to rate this tab
 
# A B C D E F G H I J K L M N O P Q R S T U V W X Y Z