Song name
# A B C D E F G H I J K L M N O P Q R S T U V W X Y Z

The Newlydeads - Terrible Lie tab

-------------------------------------------------------------------------------
			     TERRIBLE LIE - The Newlydeads
-------------------------------------------------------------------------------
Tabbed by: ironmanben
Email: bentrooper@gmail.com

Tuning: eb Bb Gb Db Ab Db

intro:
eb|------------------------------|
Bb|------------------------------|
Gb|------------------------------|
Db|-0000000000-1-0000000000-1-00-|
Ab|-0000000000-1-0000000000-1-00-|
Db|-0000000000-1-0000000000-1-00-|
    xxxxxxxxxx x xxxxxxxxxx x xx

verse:
eb|---------------------------------|
Bb|---------------------------------|
Gb|-5---2---------------------------|
Db|-5---0---------------------------|
Ab|-3---0---------------------------|
Db|-----0---------------------------|

chorus:
eb|----------------------------------------------------------------------|
Bb|----------------------------------------------------------------------|
Gb|-2---------------3-----------/7---5------------5----------------------|
Db|-0---------------3-----------/7---5------------5---5--------3-5---3---|
Ab|-0---------------1-----------/5---3------------3---5--------3-5---3---|
Db|-0-------------------------------------------------5--------3-5---3---|

bridge:
eb|-------------------------------------|
Bb|-------------------------------------|
Gb|-\9~---------------/1~---------------|
Db|-------------------------------------|
Ab|-------------------------------------|
Db|-------------------------------------|





| /  slide up
| \  slide down
| h  hammer-on
| p  pull-off
| ~  vibrato
| +  harmonic
| x  Mute note
===============================================================================
Tap to rate this tab
 
# A B C D E F G H I J K L M N O P Q R S T U V W X Y Z