Song name
# A B C D E F G H I J K L M N O P Q R S T U V W X Y Z

The Nightwatchman - Garden Of Gethsemane tab

Artist: The Nightwatchman (Tom Morello)
Song: Garden of Gethsemane
Album: One Man Revolution
Tuning: Standard

Intro
  Dm
|-1-------1-----1-------1-------1-|
|-----3-----3-------3-------3-----|
|-------2-----2-------2-------2---|
|-0-------------------------------| x2
|---------------------------------|
|---------------------------------|

Verse
  Dm              C                               Dm
|-1-------1-----1-0-------0-----0-0-------0-----0-1-------1-----1-|
|-----3-----3---------1-----1---------1-----1---------3-----3-----|
|-------2-----2---------0-----0---------0-----0---------2-----2---|
|-0-----------------------------------------------0---------------| x4
|-----------------3---------------3-------------------------------|
|-----------------------------------------------------------------|

Chorus
  F               C               Dm
|-1-------1-----1-0-------0-----0-1-------3p1-----1p0-----0-----0-|
|-----1-----1---------1-----1---------3-------3-------3-----3-----|
|-------2-----2---------0-----0---------2-------2-------2-----2---|
|-3-------------------------------0-------------------------------| x2
|-----------------3-----------------------------------------------|
|-----------------------------------------------------------------|

  F               C               F               G
|-1-------1-----1-0-------0-----0-1-------1-----1-3-------3-----3-|
|-----1-----1---------1-----1---------1-----1---------0-----0-----|
|-------2-----2---------0-----0---------2-----2---------0-----0---|
|-3-------------------------------3-------------------------------|
|-----------------3-----------------------------------------------|
|-------------------------------------------------3---------------|

  Em              Dm
|-0-------0-----0-1-------1-----1-1-------3p1-----1p0-----0-----0-|
|-----0-----0---------3-----3---------3-------3-------3-----3-----|
|-------0-----0---------2-----2---------2-------2-------2-----2---|
|-2---------------0---------------0-------------------------------|
|-----------------------------------------------------------------|
|-----------------------------------------------------------------|

Bridge
|-0-------0-----0-|
|-----3-----3-----|
|-------2-----2---|
|-0---------------|
|-----------------|
|-----------------|
Tap to rate this tab
 
# A B C D E F G H I J K L M N O P Q R S T U V W X Y Z